  0
SECTION
  2
HEADER
  9
$ACADVER
  1
AC1009
  9
$INSBASE
 10
0
 20
0
  9
$EXTMIN
 10
-14.3416657244145
 20
-308
  9
$EXTMAX
 10
309.228438045916
 20
14.57856252298571
  9
$LIMMIN
 10
-14.3416657244145
 20
-308
  9
$LIMMAX
 10
309.228438045916
 20
14.57856252298571
  9
$VIEWCTR
 10
10
 20
10
  9
$VIEWSIZE
 40
10
  9
$SNAPMODE
 70
0
  9
$SNAPUNIT
 10
1
 20
1
  9
$SNAPBASE
 10
0
 20
0
  9
$SNAPANG
 50
0
  9
$SNAPSTYLE
 70
0
  9
$SNAPISOPAIR
 70
0
  9
$GRIDMODE
 70
0
  9
$GRIDUNIT
 10
0
 20
0
  9
$ORTHOMODE
 70
0
  9
$REGENMODE
 70
1
  9
$FILLMODE
 70
1
  9
$QTEXTMODE
 70
0
  9
$DRAGMODE
 70
2
  9
$LTSCALE
 40
1
  9
$OSMODE
 70
0
  9
$ATTMODE
 70
1
  9
$TEXTSIZE
 40
3.5
  9
$TRACEWID
 40
0.5
  9
$TEXTSTYLE
  7
STANDARD
  9
$CLAYER
  8
0
  9
$CELTYPE
  6
BYLAYER
  9
$CECOLOR
 62
256
  9
$DIMSCALE
 40
1
  9
$DIMASZ
 40
0.18
  9
$DIMEXO
 40
0.0625
  9
$DIMDLI
 40
0.38
  9
$DIMRND
 40
0
  9
$DIMDLE
 40
0
  9
$DIMEXE
 40
0.18
  9
$DIMTP
 40
0
  9
$DIMTM
 40
0
  9
$DIMTXT
 40
0.18
  9
$DIMCEN
 40
0.09
  9
$DIMTSZ
 40
0
  9
$DIMTOL
 70
0
  9
$DIMLIM
 70
0
  9
$DIMTIH
 70
1
  9
$DIMTOH
 70
1
  9
$DIMSE1
 70
0
  9
$DIMSE2
 70
0
  9
$DIMTAD
 70
0
  9
$DIMZIN
 70
0
  9
$DIMBLK
  1

  9
$DIMASO
 70
1
  9
$DIMSHO
 70
1
  9
$DIMPOST
  1

  9
$DIMAPOST
  1

  9
$DIMALT
 70
0
  9
$DIMALTD
 70
2
  9
$DIMALTF
 40
25.4
  9
$DIMLFAC
 40
1
  9
$DIMTOFL
 70
0
  9
$DIMTVP
 40
0
  9
$DIMTIX
 70
0
  9
$DIMSOXD
 70
0
  9
$DIMSAH
 70
0
  9
$DIMBLK1
  1

  9
$DIMBLK2
  1

  9
$DIMSTYLE
  2
*UNNAMED
  9
$DIMCLRD
 70
0
  9
$DIMCLRE
 70
0
  9
$DIMCLRT
 70
0
  9
$DIMTFAC
 40
1
  9
$DIMGAP
 40
0.09
  9
$LUNITS
 70
2
  9
$LUPREC
 70
4
  9
$AXISMODE
 70
0
  9
$AXISUNIT
 10
0
 20
0
  9
$SKETCHINC
 40
0.1
  9
$FILLETRAD
 40
2
  9
$AUNITS
 70
0
  9
$AUPREC
 70
0
  9
$MENU
  1
ACAD
  9
$ELEVATION
 40
0
  9
$THICKNESS
 40
0
  9
$VIEWDIR
 10
0
 20
0
 30
1
  9
$LIMCHECK
 70
0
  9
$BLIPMODE
 70
1
  9
$CHAMFERA
 40
0
  9
$CHAMFERB
 40
0
  9
$FASTZOOM
 70
1
  9
$SKPOLY
 70
0
  9
$ANGBASE
 50
0
  9
$ANGDIR
 70
0
  9
$PDMODE
 70
0
  9
$PDSIZE
 40
0
  9
$PLINEWID
 40
0
  9
$COORDS
 70
2
  0
ENDSEC
  0
SECTION
  2
TABLES
  0
TABLE
  2
DIMSTYLE
 70
0
  0
ENDTAB
  0
TABLE
  2
LTYPE
 70
9
  0
LTYPE
  2
CONTINUOUS
 70
64
  3
Solid line
 72
65
 73
0
 40
0
  0
LTYPE
  2
BORDER
 70
64
  3
__ __ . __ __ .
 72
65
 73
6
 40
14.9012547788968
 49
4.257501365399086
 49
-2.128750682699543
 49
4.257501365399086
 49
-2.128750682699543
 49
0
 49
-2.128750682699543
  0
LTYPE
  2
CENTER
 70
64
  3
____ _ ____ _
 72
65
 73
4
 40
17.03000546159634
 49
10.64375341349771
 49
-2.128750682699543
 49
2.128750682699543
 49
-2.128750682699543
  0
LTYPE
  2
DASHDOT
 70
64
  3
__ . __ . __ .
 72
65
 73
4
 40
8.515002730798171
 49
4.257501365399086
 49
-2.128750682699543
 49
0
 49
-2.128750682699543
  0
LTYPE
  2
DASHED
 70
64
  3
__ __ __ __ __
 72
65
 73
2
 40
6.386252048098628
 49
4.257501365399086
 49
-2.128750682699543
  0
LTYPE
  2
DIVIDE
 70
64
  3
__ . . __ . . 
 72
65
 73
6
 40
10.64375341349771
 49
4.257501365399086
 49
-2.128750682699543
 49
0
 49
-2.128750682699543
 49
0
 49
-2.128750682699543
  0
LTYPE
  2
DOT
 70
64
  3
..............
 72
65
 73
4
 40
4.257501365399086
 49
0
 49
-2.128750682699543
 49
0
 49
-2.128750682699543
  0
LTYPE
  2
HIDDEN
 70
64
  3
_ _ _ _ _ _ _
 72
65
 73
2
 40
3.193126024049314
 49
2.128750682699543
 49
-1.064375341349771
  0
LTYPE
  2
PHANTOM
 70
64
  3
_____ _ _ _____ _ _ 
 72
65
 73
6
 40
21.28750682699543
 49
10.64375341349771
 49
-2.128750682699543
 49
2.128750682699543
 49
-2.128750682699543
 49
2.128750682699543
 49
-2.128750682699543
  0
ENDTAB
  0
TABLE
  2
LAYER
 70
3
  0
LAYER
  2
100
 70
0
 62
7
  6
CONTINUOUS
  0
LAYER
  2
0
 70
0
 62
7
  6
CONTINUOUS
  0
ENDTAB
  0
TABLE
  2
STYLE
 70
4
  0
STYLE
  2
STANDARD
 70
0
 40
0
 41
1
 50
0
 71
0
 42
3.5
  3
txt
  4

  0
STYLE
  2
SIMPLEX
 70
0
 40
0
 41
1
 50
0
 71
0
 42
3.5
  3
simplex
  4

  0
STYLE
  2
COMPLEX
 70
0
 40
0
 41
1
 50
0
 71
0
 42
3.5
  3
complex
  4

  0
STYLE
  2
ITALIC
 70
0
 40
0
 41
1
 50
0
 71
0
 42
3.5
  3
italic
  4

  0
ENDTAB
  0
TABLE
  2
VIEW
 70
0
  0
ENDTAB
  0
ENDSEC
  0
SECTION
  2
BLOCKS
  0
ENDSEC
  0
SECTION
  2
ENTITIES
  0
LINE
  8
100
 62
1
  6
DASHED
 10
-4
 20
4
 30
0
 11
-4
 21
-4
 31
0
  0
LINE
  8
100
 62
1
  6
DASHED
 10
4
 20
4
 30
0
 11
-4
 21
4
 31
0
  0
LINE
  8
100
 62
1
  6
DASHED
 10
4
 20
-4
 30
0
 11
4
 21
4
 31
0
  0
LINE
  8
100
 62
1
  6
DASHED
 10
-4
 20
-4
 30
0
 11
4
 21
-4
 31
0
  0
LINE
  8
100
 62
1
  6
DASHDOT
 10
0
 20
-234.491603198128
 30
0
 11
0
 21
-293.184165698128
 31
0
  0
LINE
  8
100
 62
1
  6
DASHDOT
 10
234.796910728035
 20
0
 30
0
 11
309.228438045916
 21
0
 31
0
  0
LINE
  8
100
 62
1
  6
DASHED
 10
4
 20
-288
 30
0
 11
-4
 21
-288
 31
0
  0
LINE
  8
100
 62
1
  6
DASHED
 10
4
 20
-238
 30
0
 11
4
 21
-288
 31
0
  0
LINE
  8
100
 62
1
  6
DASHED
 10
-4
 20
-238
 30
0
 11
-4
 21
-288
 31
0
  0
LINE
  8
100
 62
1
 10
120.1254610990171
 20
10.0940837529768
 30
0
 11
120.1254610990171
 21
-6.611006090772989
 31
0
  0
LINE
  8
100
 62
1
 10
120.1254610990171
 20
-290.519043627816
 30
0
 11
120.1254610990171
 21
-307.168832690315
 31
0
  0
LINE
  8
100
 62
1
 10
11.52820801615701
 20
-7.494015364814189
 30
0
 11
-2.162250377724931
 21
-7.494015364814189
 31
0
  0
LINE
  8
100
 62
7
 10
120
 20
-7.494015364814189
 30
0
 11
11.52820801615701
 21
-7.494015364814189
 31
0
  0
LINE
  8
100
 62
1
 10
7.84564849415419
 20
10.96241841140258
 30
0
 11
-2.162250377724931
 21
10.96241841140258
 31
0
  0
LINE
  8
100
 62
7
 10
250
 20
12
 30
0
 11
306.5
 21
10.02606220726798
 31
0
  0
LINE
  8
100
 62
7
 10
250
 20
-12
 30
0
 11
293.747187687602
 21
-8.460647344563341
 31
0
  0
LINE
  8
100
 62
7
 10
16
 20
-289.5382711194352
 30
0
 11
120
 21
-289.5382711194352
 31
0
  0
LINE
  8
100
 62
7
 10
-6
 20
-308
 30
0
 11
120
 21
-308
 31
0
  0
LINE
  8
100
 62
7
 10
12
 20
-250
 30
0
 11
12
 21
-285.5382711194352
 31
0
  0
LINE
  8
100
 62
7
 10
-12
 20
-250
 30
0
 11
-12
 21
-302
 31
0
  0
LINE
  8
100
 62
7
 10
121
 20
-290.5382711194352
 30
0
 11
121
 21
-307
 31
0
  0
LINE
  8
100
 62
7
 10
-8.924999999999997
 20
-238
 30
0
 11
8.925000000000011
 21
-238
 31
0
  0
LINE
  8
100
 62
7
 10
8.925000000000011
 20
-238
 30
0
 11
8.925000000000011
 21
-250
 31
0
  0
LINE
  8
100
 62
7
 10
-8.924999999999997
 20
-238
 30
0
 11
-8.924999999999997
 21
-250
 31
0
  0
LINE
  8
100
 62
7
 10
-12
 20
-250
 30
0
 11
12
 21
-250
 31
0
  0
LINE
  8
100
 62
7
 10
238
 20
8.924999999999983
 30
0
 11
250
 21
8.924999999999983
 31
0
  0
LINE
  8
100
 62
7
 10
238
 20
-8.925000000000011
 30
0
 11
250
 21
-8.925000000000011
 31
0
  0
LINE
  8
100
 62
7
 10
250
 20
-12
 30
0
 11
250
 21
12
 31
0
  0
LINE
  8
100
 62
7
 10
238
 20
8.924999999999983
 30
0
 11
238
 21
-8.925000000000011
 31
0
  0
LINE
  8
100
 62
7
 10
120
 20
10.96241841140258
 30
0
 11
7.84564849415419
 21
10.96241841140258
 31
0
  0
LINE
  8
100
 62
7
 10
121
 20
-6.494015364814189
 30
0
 11
121
 21
9.962418411402581
 31
0
  0
LINE
  8
100
 62
1
  6
DASHDOT
 10
-14.3416657244145
 20
0
 30
0
 11
14.3445695304501
 21
0
 31
0
  0
LINE
  8
100
 62
1
  6
DASHDOT
 10
0
 20
14.57856252298571
 30
0
 11
0
 21
-14.466250672565
 31
0
  0
LINE
  8
100
 62
1
  6
DASHED
 10
288
 20
4
 30
0
 11
288
 21
-4
 31
0
  0
LINE
  8
100
 62
1
  6
DASHED
 10
238
 20
-4
 30
0
 11
288
 21
-4
 31
0
  0
LINE
  8
100
 62
1
  6
DASHED
 10
238
 20
4
 30
0
 11
288
 21
4
 31
0
  0
ARC
  8
100
 62
1
 10
-20.28677041300868
 20
-278.2831641665715
 30
0
 40
34.28649502000081
 50
313.694652230354
 51
341.1055499546496
  0
ARC
  8
100
 62
7
 10
0
 20
0
 30
0
 40
11.99999999999998
 50
75.1351686082931
 51
312.6976778083565
  0
ARC
  8
100
 62
7
 10
11.52820801615701
 20
-12.49401536481419
 30
0
 40
5.000000000000002
 50
90
 51
132.6976778083574
  0
ARC
  8
100
 62
1
 10
0
 20
0
 30
0
 40
12
 50
312.6976778083565
 51
327.4199506429118
  0
ARC
  8
100
 62
7
 10
7.953701435507909
 20
29.96621743079749
 30
0
 40
19.00379901939491
 50
255.135168608293
 51
269.8682651366739
  0
ARC
  8
100
 62
1
  6
DASHED
 10
0
 20
0
 30
0
 40
11.99999999999998
 50
327.4199506429118
 51
75.1351686082931
  0
ARC
  8
100
 62
7
 10
306.5
 20
8.526062207267984
 30
0
 40
1.499999999999961
 50
348.4004417027449
 51
90
  0
ARC
  8
100
 62
7
 10
282.7746499109381
 20
13.39598655487828
 30
0
 40
25.71999999999993
 50
314.8505157392962
 51
348.4004417027417
  0
ARC
  8
100
 62
1
  6
DASHED
 10
311.3699243476103
 20
-15.19928788179402
 30
0
 40
25.72000000000004
 50
101.5995582972583
 51
135.1494842607038
  0
ARC
  8
100
 62
1
  6
DASHED
 10
306.5
 20
8.526062207267984
 30
0
 40
1.499999999999996
 50
90
 51
101.5995582972559
  0
ARC
  8
100
 62
1
 10
-2.162250377724931
 20
1.734201523294203
 30
0
 40
9.228216888108378
 50
90
 51
270
  0
CIRCLE
  8
100
 62
1
  6
DASHED
 10
0
 20
0
 30
0
 40
8.925000000000011
  0
POLYLINE
  8
100
 62
7
 66
1
  0
VERTEX
  8
100
 10
300.913925289749
 20
-4.838187096034829
 30
0
 42
-0.008753430824731279
  0
VERTEX
  8
100
 10
300.5346807944289
 20
-5.204378513712209
 30
0
 42
-0.0105458890161102
  0
VERTEX
  8
100
 10
300.1049231253923
 20
-5.589830655261701
 30
0
 42
-0.01070637275061643
  0
VERTEX
  8
100
 10
299.6217787287002
 20
-5.988688120303559
 30
0
 42
-0.0107005157636189
  0
VERTEX
  8
100
 10
299.1217498491136
 20
-6.366685307196416
 30
0
 42
-0.01132476693587325
  0
VERTEX
  8
100
 10
298.6202001842022
 20
-6.712235662756346
 30
0
 42
-0.01133999576191476
  0
VERTEX
  8
100
 10
298.1037137530801
 20
-7.034557082684698
 30
0
 42
-0.009596867808554562
  0
VERTEX
  8
100
 10
297.6275970641777
 20
-7.303596674883281
 30
0
 42
-0.01038759603005746
  0
VERTEX
  8
100
 10
297.196438163297
 20
-7.523218576204119
 30
0
 42
-0.01038899715266476
  0
VERTEX
  8
100
 10
296.7564598906084
 20
-7.72476372436275
 30
0
 42
-0.01071973035758488
  0
VERTEX
  8
100
 10
296.322040157428
 20
-7.902169310245383
 30
0
 42
-0.01184113110699528
  0
VERTEX
  8
100
 10
295.8946879179584
 20
-8.053707744067548
 30
0
 42
-0.01184183091019246
  0
VERTEX
  8
100
 10
295.4605282456175
 20
-8.184865971681548
 30
0
 42
-0.01231963999665047
  0
VERTEX
  8
100
 10
295.0368347225141
 20
-8.291065823061238
 30
0
 42
-0.01393116482416185
  0
VERTEX
  8
100
 10
294.6257511409416
 20
-8.370336131041746
 30
0
 42
-0.01393055002067685
  0
VERTEX
  8
100
 10
294.2107185162224
 20
-8.426598009927599
 30
0
 42
-0.009409458416809676
  0
VERTEX
  8
100
 10
293.8744378965349
 20
-8.454789157835918
 30
0
  0
VERTEX
  8
100
 10
293.747187687602
 20
-8.460647344563341
 30
0
  0
SEQEND
  8
100
  0
POLYLINE
  8
100
 62
1
  6
DASHED
 66
1
  0
VERTEX
  8
100
 10
293.1357506966974
 20
2.939987497017398
 30
0
 42
0.01312658392296126
  0
VERTEX
  8
100
 10
292.5913584742972
 20
2.366225849920936
 30
0
 42
0.0133714242111781
  0
VERTEX
  8
100
 10
292.0830083876126
 20
1.770209955412657
 30
0
 42
0.01337951952041484
  0
VERTEX
  8
100
 10
291.6072524855357
 20
1.147812056381598
 30
0
 42
0.01415961759714246
  0
VERTEX
  8
100
 10
291.1789440622782
 20
0.5185411055219479
 30
0
 42
0.01416748111785916
  0
VERTEX
  8
100
 10
290.786930850945
 20
-0.1340685425419477
 30
0
 42
0.01245103272266026
  0
VERTEX
  8
100
 10
290.5147077278422
 20
-0.6472259251309528
 30
0
 42
0.0124698289141483
  0
VERTEX
  8
100
 10
290.2685151292928
 20
-1.173083203123413
 30
0
 42
0.01286491618203333
  0
VERTEX
  8
100
 10
290.055697529825
 20
-1.694326524771748
 30
0
 42
0.01421359891328052
  0
VERTEX
  8
100
 10
289.8787426587284
 20
-2.208782996024363
 30
0
 42
0.01419357319546309
  0
VERTEX
  8
100
 10
289.7311352845715
 20
-2.733042170611629
 30
0
 42
0.01668548102318656
  0
VERTEX
  8
100
 10
289.6249668690294
 20
-3.224446927788228
 30
0
 42
0.01672505490967674
  0
VERTEX
  8
100
 10
289.5519305913837
 20
-3.721538307096004
 30
0
 42
0.01748528330192636
  0
VERTEX
  8
100
 10
289.5141983152567
 20
-4.202253621820098
 30
0
 42
0.02010028905656999
  0
VERTEX
  8
100
 10
289.5146592150394
 20
-4.662002445461141
 30
0
 42
0.02003767250549678
  0
VERTEX
  8
100
 10
289.5521044852393
 20
-5.12131732256754
 30
0
 42
0.0200038389350364
  0
VERTEX
  8
100
 10
289.6086801196127
 20
-5.469264398311599
 30
0
 42
0.02013406943697647
  0
VERTEX
  8
100
 10
289.6928252334171
 20
-5.810706494323159
 30
0
 42
0.02000482581903492
  0
VERTEX
  8
100
 10
289.8045398266526
 20
-6.145643610602223
 30
0
 42
0.02766145024377463
  0
VERTEX
  8
100
 10
289.9651397486195
 20
-6.508280956648932
 30
0
 42
0.02787796785312712
  0
VERTEX
  8
100
 10
290.1646037165249
 20
-6.850002226447751
 30
0
  0
VERTEX
  8
100
 10
290.2789097177046
 20
-7.013019332754197
 30
0
 42
0.02917614167903675
  0
VERTEX
  8
100
 10
290.5275686321691
 20
-7.309967412108232
 30
0
 42
0.02948042622356309
  0
VERTEX
  8
100
 10
290.8084203232266
 20
-7.574722714869239
 30
0
 42
0.02854185009398235
  0
VERTEX
  8
100
 10
291.1239355662842
 20
-7.80933407620704
 30
0
 42
0.02782426782457677
  0
VERTEX
  8
100
 10
291.465656836083
 20
-8.008798044112503
 30
0
 42
0.02777967083712955
  0
VERTEX
  8
100
 10
291.8282941821298
 20
-8.169397966079416
 30
0
 42
0.01993269949072344
  0
VERTEX
  8
100
 10
292.1632312984088
 20
-8.2811125593149
 30
0
 42
0.02012603647047458
  0
VERTEX
  8
100
 10
292.5046733944204
 20
-8.365257673119348
 30
0
 42
0.02006051392251341
  0
VERTEX
  8
100
 10
292.8526204701645
 20
-8.421833307492761
 30
0
 42
0.01944750421645875
  0
VERTEX
  8
100
 10
293.2996985074322
 20
-8.458760757907719
 30
0
 42
0.01957362441846474
  0
VERTEX
  8
100
 10
293.747187687602
 20
-8.460647344563341
 30
0
  0
SEQEND
  8
100
  0
ARC
  8
100
 62
7
 10
120
 20
-307
 30
0
 40
1
 50
270
 51
0
  0
ARC
  8
100
 62
7
 10
120
 20
-290.5382711194352
 30
0
 40
1
 50
0
 51
90
  0
ARC
  8
100
 62
7
 10
120
 20
-6.494015364814189
 30
0
 40
1
 50
270
 51
0
  0
ARC
  8
100
 62
7
 10
120
 20
9.962418411402581
 30
0
 40
1
 50
0
 51
90
  0
ARC
  8
100
 62
7
 10
-6
 20
-302
 30
0
 40
6
 50
180
 51
270
  0
ARC
  8
100
 62
7
 10
16
 20
-285.5382711194352
 30
0
 40
4
 50
180
 51
270
  0
TEXT
  8
100
 62
7
 10
125
 20
-175
 30
0
 40
5
  1
Tuerdruecker
 41
0.9
  7
SIMPLEX
  0
TEXT
  8
100
 62
7
 10
125
 20
-185
 30
0
 40
5
  1
10250001
 41
0.9
  7
SIMPLEX
  0
ENDSEC
  0
EOF
