  0
SECTION
  2
HEADER
  9
$ACADVER
  1
AC1006
  9
$DWGCODEPAGE
  3
ansi_1252
  9
$INSBASE
 10
0.0
 20
0.0
 30
0.0
  9
$EXTMIN
 10
0.0
 20
0.0
  9
$EXTMAX
 10
100.0
 20
100.0
  9
$LIMMIN
 10
0.0
 20
0.0
  9
$LIMMAX
 10
100.0
 20
100.0
  9
$VIEWCTR
 10
6.591288
 20
4.579184
  9
$VIEWSIZE
 40
9.158369
  9
$SNAPMODE
 70
     0
  9
$SNAPUNIT
 10
1.0
 20
1.0
  9
$SNAPBASE
 10
0.0
 20
0.0
  9
$SNAPANG
 50
0.0
  9
$SNAPSTYLE
 70
     0
  9
$SNAPISOPAIR
 70
     0
  9
$GRIDMODE
 70
     0
  9
$GRIDUNIT
 10
0.0
 20
0.0
  9
$ORTHOMODE
 70
     0
  9
$REGENMODE
 70
     1
  9
$FILLMODE
 70
     1
  9
$QTEXTMODE
 70
     0
  9
$MIRRTEXT
 70
     1
  9
$DRAGMODE
 70
     2
  9
$LTSCALE
 40
1.0
  9
$OSMODE
 70
     0
  9
$ATTMODE
 70
     1
  9
$TEXTSIZE
 40
0.2
  9
$TRACEWID
 40
0.05
  9
$TEXTSTYLE
  7
STANDARD
  9
$CLAYER
  8
0
  9
$CELTYPE
  6
CONTINUOUS
  9
$CECOLOR
 62
   256
  9
$DIMSCALE
 40
1.0
  9
$DIMASZ
 40
0.18
  9
$DIMEXO
 40
0.0625
  9
$DIMDLI
 40
0.38
  9
$DIMRND
 40
0.0
  9
$DIMDLE
 40
0.0
  9
$DIMEXE
 40
0.18
  9
$DIMTP
 40
0.0
  9
$DIMTM
 40
0.0
  9
$DIMTXT
 40
0.18
  9
$DIMCEN
 40
0.09
  9
$DIMTSZ
 40
0.0
  9
$DIMTOL
 70
     0
  9
$DIMLIM
 70
     0
  9
$DIMTIH
 70
     1
  9
$DIMTOH
 70
     1
  9
$DIMSE1
 70
     0
  9
$DIMSE2
 70
     0
  9
$DIMTAD
 70
     0
  9
$DIMZIN
 70
     0
  9
$DIMBLK
  1

  9
$DIMASO
 70
     1
  9
$DIMSHO
 70
     1
  9
$DIMPOST
  1

  9
$DIMAPOST
  1

  9
$DIMALT
 70
     0
  9
$DIMALTD
 70
     2
  9
$DIMALTF
 40
25.4
  9
$DIMLFAC
 40
1.0
  9
$DIMTOFL
 70
     0
  9
$DIMTVP
 40
0.0
  9
$DIMTIX
 70
     0
  9
$DIMSOXD
 70
     0
  9
$DIMSAH
 70
     0
  9
$DIMBLK1
  1

  9
$DIMBLK2
  1

  9
$LUNITS
 70
     2
  9
$LUPREC
 70
     4
  9
$AXISMODE
 70
     0
  9
$AXISUNIT
 10
0.0
 20
0.0
  9
$SKETCHINC
 40
0.1
  9
$FILLETRAD
 40
0.0
  9
$AUNITS
 70
     0
  9
$AUPREC
 70
     3
  9
$MENU
  1
acad
  9
$ELEVATION
 40
0.0
  9
$THICKNESS
 40
0.0
  9
$LIMCHECK
 70
     0
  9
$BLIPMODE
 70
     1
  9
$CHAMFERA
 40
0.0
  9
$CHAMFERB
 40
0.0
  9
$SKPOLY
 70
     0
  9
$TDCREATE
 40
0.000000000
  9
$TDUPDATE
 40
0.000000000
  9
$TDINDWG
 40
0.0000000000
  9
$TDUSRTIMER
 40
0.0000000000
  9
$USRTIMER
 70
     1
  9
$ANGBASE
 50
0.0
  9
$ANGDIR
 70
     0
  9
$PDMODE
 70
     0
  9
$PDSIZE
 40
0.0
  9
$PLINEWID
 40
0.0
  9
$COORDS
 70
     0
  9
$SPLFRAME
 70
     0
  9
$SPLINETYPE
 70
     6
  9
$SPLINESEGS
 70
     8
  9
$ATTDIA
 70
     0
  9
$ATTREQ
 70
     1
  9
$HANDLING
 70
     0
  9
$HANDSEED
  5
3
  9
$SURFTAB1
 70
     6
  9
$SURFTAB2
 70
     6
  9
$SURFTYPE
 70
     6
  9
$SURFU
 70
     6
  9
$SURFV
 70
     6
  9
$FLATLAND
 70
     0
  9
$UCSNAME
  2

  9
$UCSORG
 10
0.0
 20
0.0
 30
0.0
  9
$UCSXDIR
 10
1.0
 20
0.0
 30
0.0
  9
$UCSYDIR
 10
0.0
 20
1.0
 30
0.0
  9
$USERI1
 70
     0
  9
$USERI2
 70
     0
  9
$USERI3
 70
     0
  9
$USERI4
 70
     0
  9
$USERI5
 70
     0
  9
$USERR1
 40
0.0
  9
$USERR2
 40
0.0
  9
$USERR3
 40
0.0
  9
$USERR4
 40
0.0
  9
$USERR5
 40
0.0
  9
$WORLDVIEW
 70
     1
  0
ENDSEC
  0
SECTION
  2
TABLES
  0
TABLE
  2
VPORT
 70
     1
  0
VPORT
  2
*ACTIVE
 70
     0
 10
0.0
 20
0.0
 11
1.0
 21
1.0
 12
6.591288
 22
4.579184
 13
0.0
 23
0.0
 14
1.0
 24
1.0
 15
0.0
 25
0.0
 16
0.0
 26
0.0
 36
1.0
 17
0.0
 27
0.0
 37
0.0
 40
9.158369
 41
0.688564
 42
50.0
 43
0.0
 44
0.0
 50
0.0
 51
0.0
 71
     0
 72
   100
 73
     1
 74
     1
 75
     0
 76
     0
 77
     0
 78
     0
  0
ENDTAB
  0
TABLE
  2
LTYPE
 70
     3
  0
LTYPE
  2
CONTINUOUS
 70
     0
  3
Solid line
 72
    65
 73
     0
 40
0.0
  0
LTYPE
  2
DOT_CENTER
 70
     0
  3

 72
    65
 73
     0
 40
0.0
  0
LTYPE
  2
PHANTOM
 70
     0
  3

 72
    65
 73
     2
 40
380.999994
 49
304.799995
 49
-76.199999
  0
ENDTAB
  0
TABLE
  2
LAYER
 70
     2
  0
LAYER
  2
0
 70
     0
 62
     1
  6
CONTINUOUS
  0
LAYER
  2
104
 70
     0
 62
     1
  6
CONTINUOUS
  0
ENDTAB
  0
TABLE
  2
STYLE
 70
     1
  0
STYLE
  2
STANDARD
 70
     0
 40
0.0
 41
1.0
 50
0.0
 71
     0
 42
0.2
  3

  4

  0
ENDTAB
  0
TABLE
  2
VIEW
 70
     0
  0
ENDTAB
  0
TABLE
  2
UCS
 70
     0
  0
ENDTAB
  0
ENDSEC
  0
SECTION
  2
BLOCKS
  0
BLOCK
  8
0
  2
_G_T_1
 70
    64
 10
0.0
 20
0.0
  0
TEXT
  8
104
  6
CONTINUOUS
 62
     1
 10
125.0
 20
-176.449997
 30
0.0
 40
5.0
  1
Griffmuschel
 41
1.000004
  0
TEXT
  8
104
  6
CONTINUOUS
 62
     1
 10
125.0
 20
-183.449997
 30
0.0
 40
5.0
  1
42150001
 41
1.000004
  0
ENDBLK
  8
0
  0
ENDSEC
  0
SECTION
  2
ENTITIES
  0
ARC
  8
104
  6
CONTINUOUS
 62
     7
 10
-16.5
 20
-251.999996
 30
0.0
 40
1.0
 50
180.0
 51
270.0
  0
ARC
  8
104
  6
CONTINUOUS
 62
     7
 10
16.5
 20
-251.999996
 30
0.0
 40
1.0
 50
270.0
 51
0.0
  0
ARC
  8
104
  6
PHANTOM
 62
     1
 10
7.0
 20
-35.543396
 30
0.0
 40
1.0
 50
121.232929
 51
180.0
  0
ARC
  8
104
  6
PHANTOM
 62
     1
 10
-7.0
 20
-35.543396
 30
0.0
 40
1.0
 50
0.0
 51
58.767071
  0
ARC
  8
104
  6
PHANTOM
 62
     1
 10
7.0
 20
35.543396
 30
0.0
 40
1.0
 50
180.0
 51
238.767071
  0
ARC
  8
104
  6
PHANTOM
 62
     1
 10
-7.0
 20
35.543396
 30
0.0
 40
1.0
 50
301.232929
 51
0.0
  0
ARC
  8
104
  6
PHANTOM
 62
     1
 10
0.0
 20
24.0
 30
0.0
 40
12.5
 50
0.0
 51
58.767071
  0
ARC
  8
104
  6
PHANTOM
 62
     1
 10
0.0
 20
24.0
 30
0.0
 40
12.5
 50
121.232929
 51
180.0
  0
ARC
  8
104
  6
PHANTOM
 62
     1
 10
0.0
 20
-24.0
 30
0.0
 40
12.5
 50
180.0
 51
238.767071
  0
ARC
  8
104
  6
PHANTOM
 62
     1
 10
0.0
 20
-24.0
 30
0.0
 40
12.5
 50
301.232929
 51
0.0
  0
ARC
  8
104
  6
CONTINUOUS
 62
     7
 10
252.000005
 20
-101.5
 30
0.0
 40
1.0
 50
270.0
 51
360.0
  0
ARC
  8
104
  6
CONTINUOUS
 62
     7
 10
252.000005
 20
51.5
 30
0.0
 40
1.0
 50
0.0
 51
90.0
  0
ARC
  8
104
  6
CONTINUOUS
 62
     7
 10
11.5
 20
-236.999996
 30
0.0
 40
1.0
 50
0.0
 51
90.0
  0
ARC
  8
104
  6
CONTINUOUS
 62
     7
 10
-11.5
 20
-236.999996
 30
0.0
 40
1.0
 50
90.0
 51
180.0
  0
ARC
  8
104
  6
PHANTOM
 62
     1
 10
11.0
 20
-251.999996
 30
0.0
 40
1.0
 50
180.0
 51
270.0
  0
ARC
  8
104
  6
PHANTOM
 62
     1
 10
9.0
 20
-238.999996
 30
0.0
 40
1.0
 50
0.0
 51
90.0
  0
ARC
  8
104
  6
PHANTOM
 62
     1
 10
-9.0
 20
-238.999996
 30
0.0
 40
1.0
 50
90.0
 51
180.0
  0
ARC
  8
104
  6
PHANTOM
 62
     1
 10
-11.0
 20
-251.999996
 30
0.0
 40
1.0
 50
270.0
 51
0.0
  0
ARC
  8
104
  6
PHANTOM
 62
     1
 10
251.500005
 20
-35.249391
 30
0.0
 40
1.5
 50
0.0
 51
90.0
  0
ARC
  8
104
  6
PHANTOM
 62
     1
 10
251.500005
 20
35.249391
 30
0.0
 40
1.5
 50
270.0
 51
0.0
  0
ARC
  8
104
  6
CONTINUOUS
 62
     7
 10
237.000005
 20
45.0
 30
0.0
 40
1.0
 50
90.0
 51
180.0
  0
ARC
  8
104
  6
PHANTOM
 62
     1
 10
239.000005
 20
32.749391
 30
0.0
 40
1.0
 50
90.0
 51
180.0
  0
ARC
  8
104
  6
PHANTOM
 62
     1
 10
239.000005
 20
-32.749391
 30
0.0
 40
1.0
 50
180.0
 51
270.0
  0
ARC
  8
104
  6
CONTINUOUS
 62
     7
 10
237.000005
 20
-45.0
 30
0.0
 40
1.0
 50
180.0
 51
270.0
  0
CIRCLE
  8
104
  6
PHANTOM
 62
     1
 10
0.0
 20
-40.0
 30
0.0
 40
2.5
  0
CIRCLE
  8
104
  6
PHANTOM
 62
     1
 10
0.0
 20
40.0
 30
0.0
 40
2.5
  0
ARC
  8
104
  6
PHANTOM
 62
     1
 10
0.0
 20
40.0
 30
0.0
 40
6.0
 50
0.0
 51
180.0
  0
ARC
  8
104
  6
PHANTOM
 62
     1
 10
0.0
 20
-40.0
 30
0.0
 40
6.0
 50
180.0
 51
0.0
  0
ARC
  8
104
  6
PHANTOM
 62
     1
 10
0.0
 20
-40.0
 30
0.0
 40
3.0
 50
170.0
 51
100.0
  0
ARC
  8
104
  6
PHANTOM
 62
     1
 10
0.0
 20
40.0
 30
0.0
 40
3.0
 50
170.0
 51
100.0
  0
LINE
  8
104
  6
DOT_CENTER
 62
     1
 10
0.0
 20
-234.200651
 30
0.0
 11
0.0
 21
-255.200651
 31
0.0
  0
LINE
  8
104
  6
PHANTOM
 62
     1
 10
-10.0
 20
-238.999996
 30
0.0
 11
-10.0
 21
-251.999996
 31
0.0
  0
LINE
  8
104
  6
CONTINUOUS
 62
     7
 10
-12.5
 20
-236.999996
 30
0.0
 11
-12.5
 21
-249.999996
 31
0.0
  0
LINE
  8
104
  6
CONTINUOUS
 62
     7
 10
17.5
 20
-249.999996
 30
0.0
 11
-17.5
 21
-249.999996
 31
0.0
  0
LINE
  8
104
  6
CONTINUOUS
 62
     7
 10
-17.5
 20
-249.999996
 30
0.0
 11
-17.5
 21
-251.999996
 31
0.0
  0
LINE
  8
104
  6
CONTINUOUS
 62
     7
 10
17.5
 20
-251.999996
 30
0.0
 11
17.5
 21
-249.999996
 31
0.0
  0
LINE
  8
104
  6
CONTINUOUS
 62
     7
 10
12.5
 20
-249.999996
 30
0.0
 11
12.5
 21
-236.999996
 31
0.0
  0
LINE
  8
104
  6
PHANTOM
 62
     1
 10
10.0
 20
-251.999996
 30
0.0
 11
10.0
 21
-238.999996
 31
0.0
  0
LINE
  8
104
  6
DOT_CENTER
 62
     1
 10
14.407448
 20
-35.0
 30
0.0
 11
-14.592552
 21
-35.0
 31
0.0
  0
LINE
  8
104
  6
DOT_CENTER
 62
     1
 10
-19.592552
 20
35.0
 30
0.0
 11
19.407448
 21
35.0
 31
0.0
  0
LINE
  8
104
  6
CONTINUOUS
 62
     7
 10
247.000005
 20
-47.5
 30
0.0
 11
250.000005
 21
-47.5
 31
0.0
  0
LINE
  8
104
  6
CONTINUOUS
 62
     7
 10
247.000005
 20
-24.0
 30
0.0
 11
247.000005
 21
-47.5
 31
0.0
  0
LINE
  8
104
  6
CONTINUOUS
 62
     7
 10
237.000005
 20
-46.0
 30
0.0
 11
247.000005
 21
-46.0
 31
0.0
  0
LINE
  8
104
  6
CONTINUOUS
 62
     7
 10
-17.5
 20
35.0
 30
0.0
 11
-17.5
 21
-85.0
 31
0.0
  0
LINE
  8
104
  6
CONTINUOUS
 62
     7
 10
17.5
 20
-85.0
 30
0.0
 11
17.5
 21
35.0
 31
0.0
  0
LINE
  8
104
  6
PHANTOM
 62
     1
 10
239.000005
 20
-33.749391
 30
0.0
 11
251.500005
 21
-33.749391
 31
0.0
  0
LINE
  8
104
  6
PHANTOM
 62
     1
 10
251.500005
 20
33.749391
 30
0.0
 11
239.000005
 21
33.749391
 31
0.0
  0
LINE
  8
104
  6
CONTINUOUS
 62
     7
 10
-10.0
 20
23.75
 30
0.0
 11
-10.0
 21
-23.75
 31
0.0
  0
LINE
  8
104
  6
CONTINUOUS
 62
     7
 10
10.0
 20
-23.75
 30
0.0
 11
10.0
 21
23.75
 31
0.0
  0
LINE
  8
104
  6
DOT_CENTER
 62
     1
 10
13.993319
 20
24.0
 30
0.0
 11
-14.006681
 21
24.0
 31
0.0
  0
LINE
  8
104
  6
DOT_CENTER
 62
     1
 10
-14.006681
 20
-24.0
 30
0.0
 11
13.993319
 21
-24.0
 31
0.0
  0
LINE
  8
104
  6
DOT_CENTER
 62
     1
 10
-18.731756
 20
-85.0
 30
0.0
 11
18.268244
 21
-85.0
 31
0.0
  0
LINE
  8
104
  6
PHANTOM
 62
     1
 10
6.0
 20
40.0
 30
0.0
 11
6.0
 21
35.543396
 31
0.0
  0
LINE
  8
104
  6
PHANTOM
 62
     1
 10
-6.0
 20
35.543396
 30
0.0
 11
-6.0
 21
40.0
 31
0.0
  0
LINE
  8
104
  6
PHANTOM
 62
     1
 10
238.000005
 20
32.749391
 30
0.0
 11
238.000005
 21
-32.749391
 31
0.0
  0
LINE
  8
104
  6
PHANTOM
 62
     1
 10
237.71133
 20
43.0
 30
0.0
 11
237.71133
 21
37.0
 31
0.0
  0
LINE
  8
104
  6
PHANTOM
 62
     1
 10
238.000005
 20
37.5
 30
0.0
 11
237.71133
 21
37.0
 31
0.0
  0
LINE
  8
104
  6
PHANTOM
 62
     1
 10
238.000005
 20
42.5
 30
0.0
 11
238.000005
 21
37.5
 31
0.0
  0
LINE
  8
104
  6
PHANTOM
 62
     1
 10
238.000005
 20
37.5
 30
0.0
 11
250.550005
 21
37.5
 31
0.0
  0
LINE
  8
104
  6
PHANTOM
 62
     1
 10
238.000005
 20
42.5
 30
0.0
 11
250.550005
 21
42.5
 31
0.0
  0
LINE
  8
104
  6
PHANTOM
 62
     1
 10
237.71133
 20
43.0
 30
0.0
 11
238.000005
 21
42.5
 31
0.0
  0
LINE
  8
104
  6
PHANTOM
 62
     1
 10
248.000005
 20
37.0
 30
0.0
 11
248.000005
 21
43.0
 31
0.0
  0
LINE
  8
104
  6
PHANTOM
 62
     1
 10
252.000005
 20
40.0
 30
0.0
 11
250.550005
 21
37.5
 31
0.0
  0
LINE
  8
104
  6
PHANTOM
 62
     1
 10
250.550005
 20
42.5
 30
0.0
 11
252.000005
 21
40.0
 31
0.0
  0
LINE
  8
104
  6
PHANTOM
 62
     1
 10
250.550005
 20
37.500001
 30
0.0
 11
250.550005
 21
42.5
 31
0.0
  0
LINE
  8
104
  6
DOT_CENTER
 62
     1
 10
235.090517
 20
40.0
 30
0.0
 11
253.090517
 21
40.0
 31
0.0
  0
LINE
  8
104
  6
CONTINUOUS
 62
     7
 10
247.000005
 20
46.0
 30
0.0
 11
237.000005
 21
46.0
 31
0.0
  0
LINE
  8
104
  6
CONTINUOUS
 62
     7
 10
247.000005
 20
47.5
 30
0.0
 11
247.000005
 21
24.0
 31
0.0
  0
LINE
  8
104
  6
CONTINUOUS
 62
     7
 10
250.000005
 20
47.5
 30
0.0
 11
247.000005
 21
47.5
 31
0.0
  0
LINE
  8
104
  6
CONTINUOUS
 62
     7
 10
250.000005
 20
52.5
 30
0.0
 11
250.000005
 21
-102.5
 31
0.0
  0
LINE
  8
104
  6
CONTINUOUS
 62
     7
 10
252.000005
 20
52.5
 30
0.0
 11
250.000005
 21
52.5
 31
0.0
  0
LINE
  8
104
  6
CONTINUOUS
 62
     7
 10
252.000005
 20
-102.5
 30
0.0
 11
250.000005
 21
-102.5
 31
0.0
  0
LINE
  8
104
  6
PHANTOM
 62
     1
 10
-12.5
 20
-35.0
 30
0.0
 11
-12.5
 21
35.0
 31
0.0
  0
LINE
  8
104
  6
PHANTOM
 62
     1
 10
-6.0
 20
-40.0
 30
0.0
 11
-6.0
 21
-35.543396
 31
0.0
  0
LINE
  8
104
  6
PHANTOM
 62
     1
 10
6.0
 20
-35.543396
 30
0.0
 11
6.0
 21
-40.0
 31
0.0
  0
LINE
  8
104
  6
PHANTOM
 62
     1
 10
12.5
 20
35.0
 30
0.0
 11
12.5
 21
-35.0
 31
0.0
  0
LINE
  8
104
  6
DOT_CENTER
 62
     1
 10
-6.839123
 20
-40.0
 30
0.0
 11
7.160877
 21
-40.0
 31
0.0
  0
LINE
  8
104
  6
DOT_CENTER
 62
     1
 10
-6.839123
 20
40.0
 30
0.0
 11
7.160877
 21
40.0
 31
0.0
  0
LINE
  8
104
  6
DOT_CENTER
 62
     1
 10
-14.5
 20
0.0
 30
0.0
 11
15.5
 21
0.0
 31
0.0
  0
LINE
  8
104
  6
DOT_CENTER
 62
     1
 10
0.0
 20
54.535446
 30
0.0
 11
0.0
 21
-103.464554
 31
0.0
  0
LINE
  8
104
  6
CONTINUOUS
 62
     1
 10
250.000005
 20
-24.0
 30
0.0
 11
247.000005
 21
-24.0
 31
0.0
  0
LINE
  8
104
  6
CONTINUOUS
 62
     1
 10
250.000005
 20
24.0
 30
0.0
 11
247.000005
 21
24.0
 31
0.0
  0
LINE
  8
104
  6
CONTINUOUS
 62
     1
 10
247.000005
 20
34.965856
 30
0.0
 11
236.000005
 21
34.965856
 31
0.0
  0
LINE
  8
104
  6
CONTINUOUS
 62
     1
 10
247.000005
 20
-34.965856
 30
0.0
 11
236.000005
 21
-34.965856
 31
0.0
  0
LINE
  8
104
  6
PHANTOM
 62
     1
 10
248.000005
 20
43.0
 30
0.0
 11
236.000005
 21
43.0
 31
0.0
  0
LINE
  8
104
  6
PHANTOM
 62
     1
 10
248.000005
 20
37.0
 30
0.0
 11
236.000005
 21
37.0
 31
0.0
  0
LINE
  8
104
  6
CONTINUOUS
 62
     7
 10
236.000005
 20
-45.0
 30
0.0
 11
236.000005
 21
45.0
 31
0.0
  0
LINE
  8
104
  6
CONTINUOUS
 62
     7
 10
253.000005
 20
51.5
 30
0.0
 11
253.000005
 21
-101.5
 31
0.0
  0
LINE
  8
104
  6
PHANTOM
 62
     1
 10
237.71133
 20
-37.0
 30
0.0
 11
237.71133
 21
-43.0
 31
0.0
  0
LINE
  8
104
  6
PHANTOM
 62
     1
 10
238.000005
 20
-42.5
 30
0.0
 11
237.71133
 21
-43.0
 31
0.0
  0
LINE
  8
104
  6
PHANTOM
 62
     1
 10
238.000005
 20
-37.5
 30
0.0
 11
238.000005
 21
-42.5
 31
0.0
  0
LINE
  8
104
  6
PHANTOM
 62
     1
 10
238.000005
 20
-42.5
 30
0.0
 11
250.550005
 21
-42.5
 31
0.0
  0
LINE
  8
104
  6
PHANTOM
 62
     1
 10
238.000005
 20
-37.5
 30
0.0
 11
250.550005
 21
-37.5
 31
0.0
  0
LINE
  8
104
  6
PHANTOM
 62
     1
 10
237.71133
 20
-37.0
 30
0.0
 11
238.000005
 21
-37.5
 31
0.0
  0
LINE
  8
104
  6
PHANTOM
 62
     1
 10
248.000005
 20
-43.0
 30
0.0
 11
248.000005
 21
-37.0
 31
0.0
  0
LINE
  8
104
  6
PHANTOM
 62
     1
 10
252.000005
 20
-40.0
 30
0.0
 11
250.550005
 21
-42.5
 31
0.0
  0
LINE
  8
104
  6
PHANTOM
 62
     1
 10
250.550005
 20
-37.5
 30
0.0
 11
252.000005
 21
-40.0
 31
0.0
  0
LINE
  8
104
  6
PHANTOM
 62
     1
 10
250.550005
 20
-42.499999
 30
0.0
 11
250.550005
 21
-37.5
 31
0.0
  0
LINE
  8
104
  6
DOT_CENTER
 62
     1
 10
235.090517
 20
-40.0
 30
0.0
 11
253.090517
 21
-40.0
 31
0.0
  0
LINE
  8
104
  6
PHANTOM
 62
     1
 10
248.000005
 20
-37.0
 30
0.0
 11
236.000005
 21
-37.0
 31
0.0
  0
LINE
  8
104
  6
PHANTOM
 62
     1
 10
248.000005
 20
-43.0
 30
0.0
 11
236.000005
 21
-43.0
 31
0.0
  0
LINE
  8
104
  6
CONTINUOUS
 62
     7
 10
-11.5
 20
-235.999996
 30
0.0
 11
11.5
 21
-235.999996
 31
0.0
  0
LINE
  8
104
  6
CONTINUOUS
 62
     7
 10
-16.5
 20
-252.999996
 30
0.0
 11
16.5
 21
-252.999996
 31
0.0
  0
LINE
  8
104
  6
CONTINUOUS
 62
     7
 10
-12.5
 20
-246.999996
 30
0.0
 11
12.5
 21
-246.999996
 31
0.0
  0
LINE
  8
104
  6
CONTINUOUS
 62
     7
 10
-6.0
 20
-236.999996
 30
0.0
 11
-6.0
 21
-246.999996
 31
0.0
  0
LINE
  8
104
  6
CONTINUOUS
 62
     7
 10
6.0
 20
-236.999996
 30
0.0
 11
6.0
 21
-246.999996
 31
0.0
  0
LINE
  8
104
  6
PHANTOM
 62
     1
 10
3.0
 20
-247.999998
 30
0.0
 11
3.0
 21
-235.999998
 31
0.0
  0
LINE
  8
104
  6
PHANTOM
 62
     1
 10
-2.499999
 20
-250.549998
 30
0.0
 11
2.5
 21
-250.549998
 31
0.0
  0
LINE
  8
104
  6
PHANTOM
 62
     1
 10
-3.0
 20
-247.999998
 30
0.0
 11
-3.0
 21
-235.999998
 31
0.0
  0
LINE
  8
104
  6
PHANTOM
 62
     1
 10
3.0
 20
-237.711323
 30
0.0
 11
-3.0
 21
-237.711323
 31
0.0
  0
LINE
  8
104
  6
PHANTOM
 62
     1
 10
-2.5
 20
-237.999998
 30
0.0
 11
-3.0
 21
-237.711323
 31
0.0
  0
LINE
  8
104
  6
PHANTOM
 62
     1
 10
-2.5
 20
-237.999998
 30
0.0
 11
-2.5
 21
-250.549998
 31
0.0
  0
LINE
  8
104
  6
PHANTOM
 62
     1
 10
2.5
 20
-237.999998
 30
0.0
 11
2.5
 21
-250.549998
 31
0.0
  0
LINE
  8
104
  6
PHANTOM
 62
     1
 10
3.0
 20
-237.711323
 30
0.0
 11
2.5
 21
-237.999998
 31
0.0
  0
LINE
  8
104
  6
PHANTOM
 62
     1
 10
-3.0
 20
-247.999998
 30
0.0
 11
3.0
 21
-247.999998
 31
0.0
  0
LINE
  8
104
  6
PHANTOM
 62
     1
 10
0.0
 20
-251.999998
 30
0.0
 11
-2.5
 21
-250.549998
 31
0.0
  0
LINE
  8
104
  6
PHANTOM
 62
     1
 10
2.5
 20
-250.549998
 30
0.0
 11
0.0
 21
-251.999998
 31
0.0
  0
LINE
  8
104
  6
DOT_CENTER
 62
     1
 10
235.000005
 20
0.0
 30
0.0
 11
254.000005
 21
0.0
 31
0.0
  0
INSERT
  8
0
  2
_G_T_1
 10
0.0
 20
0.0
 30
0.0
  0
ARC
  8
104
  6
CONTINUOUS
 62
     7
 10
0.0
 20
-85.0
 30
0.0
 40
17.5
 50
180.0
 51
0.0
  0
ARC
  8
104
  6
CONTINUOUS
 62
     7
 10
0.0
 20
-23.75
 30
0.0
 40
10.0
 50
180.0
 51
0.0
  0
ARC
  8
104
  6
CONTINUOUS
 62
     7
 10
0.0
 20
23.75
 30
0.0
 40
10.0
 50
0.0
 51
180.0
  0
ARC
  8
104
  6
CONTINUOUS
 62
     7
 10
0.0
 20
35.0
 30
0.0
 40
17.5
 50
0.0
 51
180.0
  0
ARC
  8
104
  6
PHANTOM
 62
     1
 10
0.0
 20
-35.0
 30
0.0
 40
12.5
 50
180.0
 51
0.0
  0
ARC
  8
104
  6
PHANTOM
 62
     1
 10
0.0
 20
35.0
 30
0.0
 40
12.5
 50
0.0
 51
180.0
  0
LINE
  8
104
  6
PHANTOM
 62
     1
 10
9.0
 20
-237.999996
 30
0.0
 11
-9.0
 21
-237.999996
 31
0.0
  0
ARC
  8
104
  6
CONTINUOUS
 62
     7
 10
-5.0
 20
-236.999996
 30
0.0
 40
1.0
 50
90.0
 51
180.0
  0
ARC
  8
104
  6
CONTINUOUS
 62
     7
 10
5.0
 20
-236.999996
 30
0.0
 40
1.0
 50
0.0
 51
90.0
  0
ENDSEC
  0
EOF
