  0
SECTION
  2
HEADER
  9
$ACADVER
  1
AC1009
  9
$INSBASE
 10
0
 20
0
  9
$EXTMIN
 10
-22.5
 20
-252.6105668911481
  9
$EXTMAX
 10
252.6105668911481
 20
92
  9
$LIMMIN
 10
-22.5
 20
-252.6105668911481
  9
$LIMMAX
 10
252.6105668911481
 20
92
  9
$VIEWCTR
 10
10
 20
10
  9
$VIEWSIZE
 40
10
  9
$SNAPMODE
 70
0
  9
$SNAPUNIT
 10
1
 20
1
  9
$SNAPBASE
 10
0
 20
0
  9
$SNAPANG
 50
0
  9
$SNAPSTYLE
 70
0
  9
$SNAPISOPAIR
 70
0
  9
$GRIDMODE
 70
0
  9
$GRIDUNIT
 10
0
 20
0
  9
$ORTHOMODE
 70
0
  9
$REGENMODE
 70
1
  9
$FILLMODE
 70
1
  9
$QTEXTMODE
 70
0
  9
$DRAGMODE
 70
2
  9
$LTSCALE
 40
1
  9
$OSMODE
 70
0
  9
$ATTMODE
 70
1
  9
$TEXTSIZE
 40
3.5
  9
$TRACEWID
 40
0.5
  9
$TEXTSTYLE
  7
STANDARD
  9
$CLAYER
  8
0
  9
$CELTYPE
  6
BYLAYER
  9
$CECOLOR
 62
256
  9
$DIMSCALE
 40
1
  9
$DIMASZ
 40
0.18
  9
$DIMEXO
 40
0.0625
  9
$DIMDLI
 40
0.38
  9
$DIMRND
 40
0
  9
$DIMDLE
 40
0
  9
$DIMEXE
 40
0.18
  9
$DIMTP
 40
0
  9
$DIMTM
 40
0
  9
$DIMTXT
 40
0.18
  9
$DIMCEN
 40
0.09
  9
$DIMTSZ
 40
0
  9
$DIMTOL
 70
0
  9
$DIMLIM
 70
0
  9
$DIMTIH
 70
1
  9
$DIMTOH
 70
1
  9
$DIMSE1
 70
0
  9
$DIMSE2
 70
0
  9
$DIMTAD
 70
0
  9
$DIMZIN
 70
0
  9
$DIMBLK
  1

  9
$DIMASO
 70
1
  9
$DIMSHO
 70
1
  9
$DIMPOST
  1

  9
$DIMAPOST
  1

  9
$DIMALT
 70
0
  9
$DIMALTD
 70
2
  9
$DIMALTF
 40
25.4
  9
$DIMLFAC
 40
1
  9
$DIMTOFL
 70
0
  9
$DIMTVP
 40
0
  9
$DIMTIX
 70
0
  9
$DIMSOXD
 70
0
  9
$DIMSAH
 70
0
  9
$DIMBLK1
  1

  9
$DIMBLK2
  1

  9
$DIMSTYLE
  2
*UNNAMED
  9
$DIMCLRD
 70
0
  9
$DIMCLRE
 70
0
  9
$DIMCLRT
 70
0
  9
$DIMTFAC
 40
1
  9
$DIMGAP
 40
0.09
  9
$LUNITS
 70
2
  9
$LUPREC
 70
4
  9
$AXISMODE
 70
0
  9
$AXISUNIT
 10
0
 20
0
  9
$SKETCHINC
 40
0.1
  9
$FILLETRAD
 40
2
  9
$AUNITS
 70
0
  9
$AUPREC
 70
0
  9
$MENU
  1
ACAD
  9
$ELEVATION
 40
0
  9
$THICKNESS
 40
0
  9
$VIEWDIR
 10
0
 20
0
 30
1
  9
$LIMCHECK
 70
0
  9
$BLIPMODE
 70
1
  9
$CHAMFERA
 40
0
  9
$CHAMFERB
 40
0
  9
$FASTZOOM
 70
1
  9
$SKPOLY
 70
0
  9
$ANGBASE
 50
0
  9
$ANGDIR
 70
0
  9
$PDMODE
 70
0
  9
$PDSIZE
 40
0
  9
$PLINEWID
 40
0
  9
$COORDS
 70
2
  0
ENDSEC
  0
SECTION
  2
TABLES
  0
TABLE
  2
DIMSTYLE
 70
0
  0
ENDTAB
  0
TABLE
  2
LTYPE
 70
9
  0
LTYPE
  2
CONTINUOUS
 70
64
  3
Solid line
 72
65
 73
0
 40
0
  0
LTYPE
  2
BORDER
 70
64
  3
__ __ . __ __ .
 72
65
 73
6
 40
15.87022347525024
 49
4.534349564357211
 49
-2.267174782178606
 49
4.534349564357211
 49
-2.267174782178606
 49
0
 49
-2.267174782178606
  0
LTYPE
  2
CENTER
 70
64
  3
____ _ ____ _
 72
65
 73
4
 40
18.13739825742885
 49
11.33587391089303
 49
-2.267174782178606
 49
2.267174782178606
 49
-2.267174782178606
  0
LTYPE
  2
DASHDOT
 70
64
  3
__ . __ . __ .
 72
65
 73
4
 40
9.068699128714423
 49
4.534349564357211
 49
-2.267174782178606
 49
0
 49
-2.267174782178606
  0
LTYPE
  2
DASHED
 70
64
  3
__ __ __ __ __
 72
65
 73
2
 40
6.801524346535818
 49
4.534349564357211
 49
-2.267174782178606
  0
LTYPE
  2
DIVIDE
 70
64
  3
__ . . __ . . 
 72
65
 73
6
 40
11.33587391089303
 49
4.534349564357211
 49
-2.267174782178606
 49
0
 49
-2.267174782178606
 49
0
 49
-2.267174782178606
  0
LTYPE
  2
DOT
 70
64
  3
..............
 72
65
 73
4
 40
4.534349564357211
 49
0
 49
-2.267174782178606
 49
0
 49
-2.267174782178606
  0
LTYPE
  2
HIDDEN
 70
64
  3
_ _ _ _ _ _ _
 72
65
 73
2
 40
3.400762173267909
 49
2.267174782178606
 49
-1.133587391089303
  0
LTYPE
  2
PHANTOM
 70
64
  3
_____ _ _ _____ _ _ 
 72
65
 73
6
 40
22.67174782178606
 49
11.33587391089303
 49
-2.267174782178606
 49
2.267174782178606
 49
-2.267174782178606
 49
2.267174782178606
 49
-2.267174782178606
  0
ENDTAB
  0
TABLE
  2
LAYER
 70
3
  0
LAYER
  2
101
 70
0
 62
7
  6
CONTINUOUS
  0
LAYER
  2
0
 70
0
 62
7
  6
CONTINUOUS
  0
ENDTAB
  0
TABLE
  2
STYLE
 70
4
  0
STYLE
  2
STANDARD
 70
0
 40
0
 41
1
 50
0
 71
0
 42
3.5
  3
txt
  4

  0
STYLE
  2
SIMPLEX
 70
0
 40
0
 41
1
 50
0
 71
0
 42
3.5
  3
simplex
  4

  0
STYLE
  2
COMPLEX
 70
0
 40
0
 41
1
 50
0
 71
0
 42
3.5
  3
complex
  4

  0
STYLE
  2
ITALIC
 70
0
 40
0
 41
1
 50
0
 71
0
 42
3.5
  3
italic
  4

  0
ENDTAB
  0
TABLE
  2
VIEW
 70
0
  0
ENDTAB
  0
ENDSEC
  0
SECTION
  2
BLOCKS
  0
ENDSEC
  0
SECTION
  2
ENTITIES
  0
LINE
  8
101
 62
1
  6
DASHED
 10
-4.249999999999986
 20
-77.60794024730589
 30
0
 11
-4.249999999999986
 21
-90.10794024730589
 31
0
  0
LINE
  8
101
 62
1
  6
DASHED
 10
-2.249999999999986
 20
-77.39773177677459
 30
0
 11
-4.249999999999986
 21
-77.60794024730589
 31
0
  0
LINE
  8
101
 62
1
  6
DASHED
 10
-2.249999999999986
 20
-75.78120351211099
 30
0
 11
-2.249999999999986
 21
-77.39773177677459
 31
0
  0
LINE
  8
101
 62
1
  6
DASHED
 10
2.250000000000014
 20
-77.39773177677459
 30
0
 11
2.250000000000014
 21
-75.78120351211099
 31
0
  0
LINE
  8
101
 62
1
  6
DASHED
 10
4.250000000000014
 20
-77.60794024730589
 30
0
 11
2.250000000000014
 21
-77.39773177677459
 31
0
  0
LINE
  8
101
 62
1
  6
DASHED
 10
4.250000000000014
 20
-90.10794024730589
 30
0
 11
4.250000000000014
 21
-77.60794024730589
 31
0
  0
LINE
  8
101
 62
1
  6
DASHED
 10
-5.199999999999989
 20
-78.97495519698879
 30
0
 11
-5.199999999999989
 21
-91.8
 31
0
  0
LINE
  8
101
 62
1
  6
DASHED
 10
5.199999999999989
 20
-91.8
 30
0
 11
5.199999999999989
 21
-78.97495519698879
 31
0
  0
LINE
  8
101
 62
1
  6
DASHDOT
 10
-6.75
 20
-91.8
 30
0
 11
6.75
 21
-91.8
 31
0
  0
LINE
  8
101
 62
1
  6
DASHDOT
 10
-10.2494796394553
 20
-72
 30
0
 11
10.24998902155241
 21
-72
 31
0
  0
LINE
  8
101
 62
1
  6
DASHDOT
 10
17
 20
-142
 30
0
 11
5.5
 21
-142
 31
0
  0
LINE
  8
101
 62
1
  6
DASHDOT
 10
0
 20
92
 30
0
 11
0
 21
-162
 31
0
  0
LINE
  8
101
 62
1
  6
DASHDOT
 10
-5.5
 20
-142
 30
0
 11
-17
 21
-142
 31
0
  0
LINE
  8
101
 62
1
  6
DASHDOT
 10
-11.25
 20
-136.25
 30
0
 11
-11.25
 21
-147.75
 31
0
  0
LINE
  8
101
 62
7
 10
248.8000000000001
 20
87
 30
0
 11
248.8000000000001
 21
-156
 31
0
  0
LINE
  8
101
 62
7
 10
250
 20
11.56323571888055
 30
0
 11
250
 21
-11.56323571888055
 31
0
  0
LINE
  8
101
 62
7
 10
250
 20
-11.56323571888055
 30
0
 11
248.8000000000001
 21
-12
 31
0
  0
LINE
  8
101
 62
7
 10
248.8000000000001
 20
12
 30
0
 11
250
 21
11.56323571888055
 31
0
  0
LINE
  8
101
 62
1
  6
DASHED
 10
243.8000000000001
 20
11.5
 30
0
 11
247.3000000000001
 21
11.5
 31
0
  0
LINE
  8
101
 62
1
  6
DASHED
 10
243.8000000000001
 20
-11.5
 30
0
 11
247.3000000000001
 21
-11.5
 31
0
  0
LINE
  8
101
 62
1
  6
DASHED
 10
242.0000000000001
 20
-9
 30
0
 11
249.5
 21
-9
 31
0
  0
LINE
  8
101
 62
1
  6
DASHED
 10
242
 20
9
 30
0
 11
249.5
 21
9
 31
0
  0
LINE
  8
101
 62
1
  6
DASHED
 10
246.8000000000001
 20
10
 30
0
 11
243.8000000000001
 21
10
 31
0
  0
LINE
  8
101
 62
1
  6
DASHDOT
 10
15
 20
0
 30
0
 11
-15
 21
0
 31
0
  0
LINE
  8
101
 62
1
  6
DASHED
 10
247.3000000000001
 20
-155.5
 30
0
 11
247.3000000000001
 21
86.49999999999999
 31
0
  0
LINE
  8
101
 62
1
  6
DASHED
 10
243.8000000000001
 20
-11.5
 30
0
 11
243.8000000000001
 21
11.5
 31
0
  0
LINE
  8
101
 62
1
  6
DASHED
 10
247.3000000000001
 20
-11.5
 30
0
 11
243.8000000000001
 21
-11.5
 31
0
  0
LINE
  8
101
 62
1
  6
DASHED
 10
246.8000000000001
 20
-10
 30
0
 11
243.8000000000001
 21
-10
 31
0
  0
LINE
  8
101
 62
7
 10
247.3000000000001
 20
11.5
 30
0
 11
247.3000000000017
 21
11.5
 31
0
  0
LINE
  8
101
 62
1
  6
DASHDOT
 10
250.8000000000001
 20
-142
 30
0
 11
243.3000000000001
 21
-142
 31
0
  0
LINE
  8
101
 62
1
  6
DASHED
 10
248.5000000000001
 20
-138.25
 30
0
 11
248.5000000000001
 21
-145.75
 31
0
  0
LINE
  8
101
 62
1
  6
DASHED
 10
247.4000000000001
 20
-139.35
 30
0
 11
247.4000000000001
 21
-144.65
 31
0
  0
LINE
  8
101
 62
1
  6
DASHED
 10
247.4000000000001
 20
-139.35
 30
0
 11
245.8000000000001
 21
-139.35
 31
0
  0
LINE
  8
101
 62
1
  6
DASHED
 10
248.5000000000001
 20
-138.25
 30
0
 11
247.4000000000001
 21
-139.35
 31
0
  0
LINE
  8
101
 62
1
  6
DASHED
 10
248.8000000000001
 20
-138.25
 30
0
 11
248.5000000000001
 21
-138.25
 31
0
  0
LINE
  8
101
 62
1
  6
DASHED
 10
247.4000000000001
 20
-144.65
 30
0
 11
245.8000000000001
 21
-144.65
 31
0
  0
LINE
  8
101
 62
1
  6
DASHED
 10
248.5000000000001
 20
-145.75
 30
0
 11
247.4000000000001
 21
-144.65
 31
0
  0
LINE
  8
101
 62
1
  6
DASHED
 10
248.8000000000001
 20
-145.75
 30
0
 11
248.5000000000001
 21
-145.75
 31
0
  0
LINE
  8
101
 62
1
  6
DASHED
 10
245.8000000000001
 20
-139.35
 30
0
 11
245.8000000000001
 21
-144.65
 31
0
  0
LINE
  8
101
 62
1
  6
DASHED
 10
246.9000000000001
 20
-145.75
 30
0
 11
247.3000000000001
 21
-145.75
 31
0
  0
LINE
  8
101
 62
1
  6
DASHED
 10
245.8000000000001
 20
-144.65
 30
0
 11
246.9000000000001
 21
-145.75
 31
0
  0
LINE
  8
101
 62
1
  6
DASHED
 10
246.9000000000001
 20
-138.25
 30
0
 11
245.8000000000001
 21
-139.35
 31
0
  0
LINE
  8
101
 62
1
  6
DASHED
 10
246.9000000000001
 20
-138.25
 30
0
 11
247.3000000000001
 21
-138.25
 31
0
  0
LINE
  8
101
 62
1
  6
DASHED
 10
247.3000000000001
 20
86.49999999999999
 30
0
 11
241.8000000000001
 21
86.5
 31
0
  0
LINE
  8
101
 62
1
  6
DASHED
 10
241.8000000000001
 20
-155.5
 30
0
 11
247.3000000000001
 21
-155.5
 31
0
  0
LINE
  8
101
 62
7
 10
241.8000000000001
 20
-157
 30
0
 11
241.8000000000001
 21
88
 31
0
  0
LINE
  8
101
 62
7
 10
247.8000000000001
 20
-157
 30
0
 11
241.8000000000001
 21
-157
 31
0
  0
LINE
  8
101
 62
7
 10
241.8000000000001
 20
88
 30
0
 11
247.8000000000001
 21
88
 31
0
  0
LINE
  8
101
 62
1
  6
DASHDOT
 10
-11.25
 20
78.75
 30
0
 11
-11.25
 21
67.25
 31
0
  0
LINE
  8
101
 62
1
  6
DASHDOT
 10
-5.5
 20
73
 30
0
 11
-17
 21
73
 31
0
  0
LINE
  8
101
 62
1
  6
DASHDOT
 10
11.25
 20
78.75
 30
0
 11
11.25
 21
67.25
 31
0
  0
LINE
  8
101
 62
1
  6
DASHDOT
 10
17
 20
73
 30
0
 11
5.5
 21
73
 31
0
  0
LINE
  8
101
 62
7
 10
-22.5
 20
-134.5
 30
0
 11
-22.5
 21
65.5
 31
0
  0
LINE
  8
101
 62
7
 10
22.5
 20
65.5
 30
0
 11
22.5
 21
-134.5
 31
0
  0
LINE
  8
101
 62
1
  6
DASHED
 10
-11.25
 20
-142
 30
0
 11
-11.25
 21
-147.75
 31
0
  0
LINE
  8
101
 62
1
  6
DASHDOT
 10
11.25
 20
-136.25
 30
0
 11
11.25
 21
-147.75
 31
0
  0
LINE
  8
101
 62
1
  6
DASHDOT
 10
238.6431093643962
 20
0
 30
0
 11
252.6105668911481
 21
0
 31
0
  0
LINE
  8
101
 62
1
  6
DASHDOT
 10
250.8000000000001
 20
73
 30
0
 11
243.3000000000001
 21
73
 31
0
  0
LINE
  8
101
 62
1
  6
DASHED
 10
248.5000000000001
 20
76.75
 30
0
 11
248.5000000000001
 21
69.25
 31
0
  0
LINE
  8
101
 62
1
  6
DASHED
 10
247.4000000000001
 20
75.65000000000001
 30
0
 11
247.4000000000001
 21
70.34999999999999
 31
0
  0
LINE
  8
101
 62
1
  6
DASHED
 10
247.4000000000001
 20
75.65000000000001
 30
0
 11
245.8000000000001
 21
75.65000000000001
 31
0
  0
LINE
  8
101
 62
1
  6
DASHED
 10
248.5000000000001
 20
76.75
 30
0
 11
247.4000000000001
 21
75.65000000000001
 31
0
  0
LINE
  8
101
 62
1
  6
DASHED
 10
248.8000000000001
 20
76.75
 30
0
 11
248.5000000000001
 21
76.75
 31
0
  0
LINE
  8
101
 62
1
  6
DASHED
 10
247.4000000000001
 20
70.34999999999999
 30
0
 11
245.8000000000001
 21
70.34999999999999
 31
0
  0
LINE
  8
101
 62
1
  6
DASHED
 10
248.5000000000001
 20
69.25
 30
0
 11
247.4000000000001
 21
70.34999999999999
 31
0
  0
LINE
  8
101
 62
1
  6
DASHED
 10
248.8000000000001
 20
69.25
 30
0
 11
248.5000000000001
 21
69.25
 31
0
  0
LINE
  8
101
 62
1
  6
DASHED
 10
245.8000000000001
 20
75.65000000000001
 30
0
 11
245.8000000000001
 21
70.34999999999999
 31
0
  0
LINE
  8
101
 62
1
  6
DASHED
 10
246.9000000000001
 20
69.25
 30
0
 11
247.3000000000001
 21
69.25
 31
0
  0
LINE
  8
101
 62
1
  6
DASHED
 10
245.8000000000001
 20
70.34999999999999
 30
0
 11
246.9000000000001
 21
69.25
 31
0
  0
LINE
  8
101
 62
1
  6
DASHED
 10
246.9000000000001
 20
76.75
 30
0
 11
245.8000000000001
 21
75.65000000000001
 31
0
  0
LINE
  8
101
 62
1
  6
DASHED
 10
246.9000000000001
 20
76.75
 30
0
 11
247.3000000000001
 21
76.75
 31
0
  0
LINE
  8
101
 62
7
 10
21.5
 20
-248.8000000000001
 30
0
 11
-21.5
 21
-248.8000000000001
 31
0
  0
LINE
  8
101
 62
7
 10
11.56323571888057
 20
-250
 30
0
 11
-11.56323571888053
 21
-250
 31
0
  0
LINE
  8
101
 62
7
 10
-11.56323571888053
 20
-250
 30
0
 11
-11.99999999999998
 21
-248.8000000000001
 31
0
  0
LINE
  8
101
 62
7
 10
12.00000000000002
 20
-248.8000000000001
 30
0
 11
11.56323571888057
 21
-250
 31
0
  0
LINE
  8
101
 62
1
  6
DASHED
 10
11.50000000000001
 20
-243.8000000000001
 30
0
 11
11.50000000000002
 21
-246.8000000000001
 31
0
  0
LINE
  8
101
 62
1
  6
DASHED
 10
-11.49999999999998
 20
-243.8000000000001
 30
0
 11
-11.49999999999998
 21
-246.8000000000001
 31
0
  0
LINE
  8
101
 62
1
  6
DASHED
 10
-8.999999999999986
 20
-242.0000000000001
 30
0
 11
-8.999999999999984
 21
-249.5
 31
0
  0
LINE
  8
101
 62
1
  6
DASHED
 10
9.000000000000014
 20
-242
 30
0
 11
9.000000000000016
 21
-249.5
 31
0
  0
LINE
  8
101
 62
1
  6
DASHED
 10
10.00000000000002
 20
-246.8000000000001
 30
0
 11
10.00000000000001
 21
-243.8000000000001
 31
0
  0
LINE
  8
101
 62
1
  6
DASHED
 10
-21
 20
-247.3000000000001
 30
0
 11
21
 21
-247.3000000000001
 31
0
  0
LINE
  8
101
 62
1
  6
DASHED
 10
-11.49999999999998
 20
-243.8000000000001
 30
0
 11
11.50000000000001
 21
-243.8000000000001
 31
0
  0
LINE
  8
101
 62
1
  6
DASHED
 10
-11.49999999999998
 20
-246.8000000000001
 30
0
 11
-11.49999999999998
 21
-243.8000000000001
 31
0
  0
LINE
  8
101
 62
1
  6
DASHED
 10
-9.999999999999984
 20
-246.8000000000001
 30
0
 11
-9.999999999999986
 21
-243.8000000000001
 31
0
  0
LINE
  8
101
 62
7
 10
11.50000000000002
 20
-246.8000000000001
 30
0
 11
11.50000000000002
 21
-246.8000000000017
 31
0
  0
LINE
  8
101
 62
1
  6
DASHDOT
 10
-11.25
 20
-250.8000000000001
 30
0
 11
-11.25
 21
-243.3000000000001
 31
0
  0
LINE
  8
101
 62
1
  6
DASHED
 10
-7.5
 20
-248.5000000000001
 30
0
 11
-15
 21
-248.5000000000001
 31
0
  0
LINE
  8
101
 62
1
  6
DASHED
 10
-8.599999999999994
 20
-247.4000000000001
 30
0
 11
-13.90000000000001
 21
-247.4000000000001
 31
0
  0
LINE
  8
101
 62
1
  6
DASHED
 10
-8.599999999999994
 20
-247.4000000000001
 30
0
 11
-8.599999999999994
 21
-245.8000000000001
 31
0
  0
LINE
  8
101
 62
1
  6
DASHED
 10
-7.5
 20
-248.5000000000001
 30
0
 11
-8.599999999999994
 21
-247.4000000000001
 31
0
  0
LINE
  8
101
 62
1
  6
DASHED
 10
-7.5
 20
-248.8000000000001
 30
0
 11
-7.5
 21
-248.5000000000001
 31
0
  0
LINE
  8
101
 62
1
  6
DASHED
 10
-13.90000000000001
 20
-247.4000000000001
 30
0
 11
-13.90000000000001
 21
-245.8000000000001
 31
0
  0
LINE
  8
101
 62
1
  6
DASHED
 10
-15
 20
-248.5000000000001
 30
0
 11
-13.90000000000001
 21
-247.4000000000001
 31
0
  0
LINE
  8
101
 62
1
  6
DASHED
 10
-15
 20
-248.8000000000001
 30
0
 11
-15
 21
-248.5000000000001
 31
0
  0
LINE
  8
101
 62
1
  6
DASHED
 10
-8.599999999999994
 20
-245.8000000000001
 30
0
 11
-13.90000000000001
 21
-245.8000000000001
 31
0
  0
LINE
  8
101
 62
1
  6
DASHED
 10
-15
 20
-246.9000000000001
 30
0
 11
-15
 21
-247.3000000000001
 31
0
  0
LINE
  8
101
 62
1
  6
DASHED
 10
-13.90000000000001
 20
-245.8000000000001
 30
0
 11
-15
 21
-246.9000000000001
 31
0
  0
LINE
  8
101
 62
1
  6
DASHED
 10
-7.5
 20
-246.9000000000001
 30
0
 11
-8.599999999999994
 21
-245.8000000000001
 31
0
  0
LINE
  8
101
 62
1
  6
DASHED
 10
-7.5
 20
-246.9000000000001
 30
0
 11
-7.5
 21
-247.3000000000001
 31
0
  0
LINE
  8
101
 62
1
  6
DASHED
 10
21
 20
-247.3000000000001
 30
0
 11
20.99999999999999
 21
-241.8000000000001
 31
0
  0
LINE
  8
101
 62
1
  6
DASHED
 10
-21
 20
-241.8000000000001
 30
0
 11
-21
 21
-247.3000000000001
 31
0
  0
LINE
  8
101
 62
7
 10
-22.5
 20
-241.8000000000001
 30
0
 11
22.49999999999999
 21
-241.8000000000001
 31
0
  0
LINE
  8
101
 62
7
 10
-22.5
 20
-247.8000000000001
 30
0
 11
-22.5
 21
-241.8000000000001
 31
0
  0
LINE
  8
101
 62
7
 10
22.49999999999999
 20
-241.8000000000001
 30
0
 11
22.5
 21
-247.8000000000001
 31
0
  0
LINE
  8
101
 62
1
  6
DASHDOT
 10
1.461267348029704e-14
 20
-238.6431093643962
 30
0
 11
1.546793344037696e-14
 21
-252.6105668911481
 31
0
  0
LINE
  8
101
 62
1
  6
DASHDOT
 10
11.25
 20
-250.8000000000001
 30
0
 11
11.25
 21
-243.3000000000001
 31
0
  0
LINE
  8
101
 62
1
  6
DASHED
 10
15
 20
-248.5000000000001
 30
0
 11
7.5
 21
-248.5000000000001
 31
0
  0
LINE
  8
101
 62
1
  6
DASHED
 10
13.90000000000001
 20
-247.4000000000001
 30
0
 11
8.599999999999994
 21
-247.4000000000001
 31
0
  0
LINE
  8
101
 62
1
  6
DASHED
 10
13.90000000000001
 20
-247.4000000000001
 30
0
 11
13.90000000000001
 21
-245.8000000000001
 31
0
  0
LINE
  8
101
 62
1
  6
DASHED
 10
15
 20
-248.5000000000001
 30
0
 11
13.90000000000001
 21
-247.4000000000001
 31
0
  0
LINE
  8
101
 62
1
  6
DASHED
 10
15
 20
-248.8000000000001
 30
0
 11
15
 21
-248.5000000000001
 31
0
  0
LINE
  8
101
 62
1
  6
DASHED
 10
8.599999999999994
 20
-247.4000000000001
 30
0
 11
8.599999999999994
 21
-245.8000000000001
 31
0
  0
LINE
  8
101
 62
1
  6
DASHED
 10
7.5
 20
-248.5000000000001
 30
0
 11
8.599999999999994
 21
-247.4000000000001
 31
0
  0
LINE
  8
101
 62
1
  6
DASHED
 10
7.5
 20
-248.8000000000001
 30
0
 11
7.5
 21
-248.5000000000001
 31
0
  0
LINE
  8
101
 62
1
  6
DASHED
 10
13.90000000000001
 20
-245.8000000000001
 30
0
 11
8.599999999999994
 21
-245.8000000000001
 31
0
  0
LINE
  8
101
 62
1
  6
DASHED
 10
7.5
 20
-246.9000000000001
 30
0
 11
7.5
 21
-247.3000000000001
 31
0
  0
LINE
  8
101
 62
1
  6
DASHED
 10
8.599999999999994
 20
-245.8000000000001
 30
0
 11
7.5
 21
-246.9000000000001
 31
0
  0
LINE
  8
101
 62
1
  6
DASHED
 10
15
 20
-246.9000000000001
 30
0
 11
13.90000000000001
 21
-245.8000000000001
 31
0
  0
LINE
  8
101
 62
1
  6
DASHED
 10
15
 20
-246.9000000000001
 30
0
 11
15
 21
-247.3000000000001
 31
0
  0
LINE
  8
101
 62
1
  6
DASHED
 10
21
 20
65.5
 30
0
 11
21
 21
-134.5
 31
0
  0
LINE
  8
101
 62
1
  6
DASHED
 10
-21
 20
-134.5
 30
0
 11
-21
 21
65.5
 31
0
  0
ARC
  8
101
 62
1
  6
DASHED
 10
0
 20
-72
 30
0
 40
4.400000000000063
 50
300.7547036330311
 51
239.2452963669692
  0
ARC
  8
101
 62
1
  6
DASHED
 10
0
 20
-72
 30
0
 40
18.60000000000001
 50
256.7915398597207
 51
283.2084601402795
  0
ARC
  8
101
 62
1
  6
DASHED
 10
0
 20
-72
 30
0
 40
8.700000000000045
 50
306.7054314115093
 51
233.2945685884907
  0
ARC
  8
101
 62
1
  6
DASHED
 10
0
 20
-91.8
 30
0
 40
5.199999999999989
 50
180
 51
0
  0
ARC
  8
101
 62
7
 10
0
 20
65.5
 30
0
 40
22.5
 50
0
 51
180
  0
ARC
  8
101
 62
7
 10
0
 20
-134.5
 30
0
 40
22.5
 50
180
 51
0
  0
ARC
  8
101
 62
1
  6
DASHED
 10
0
 20
-134.5
 30
0
 40
21
 50
180
 51
0
  0
ARC
  8
101
 62
1
  6
DASHED
 10
0
 20
65.5
 30
0
 40
21
 50
0
 51
180
  0
CIRCLE
  8
101
 62
7
 10
0
 20
0
 30
0
 40
12.00000000000011
  0
CIRCLE
  8
101
 62
7
 10
0
 20
0
 30
0
 40
9.000000000000114
  0
CIRCLE
  8
101
 62
7
 10
-11.25
 20
-142
 30
0
 40
2.650000000000006
  0
CIRCLE
  8
101
 62
7
 10
-11.25
 20
-142
 30
0
 40
3.75
  0
CIRCLE
  8
101
 62
7
 10
11.25
 20
-142
 30
0
 40
2.650000000000009
  0
CIRCLE
  8
101
 62
7
 10
11.25
 20
-142
 30
0
 40
3.75
  0
CIRCLE
  8
101
 62
7
 10
-11.25
 20
73
 30
0
 40
2.650000000000006
  0
CIRCLE
  8
101
 62
7
 10
-11.25
 20
73
 30
0
 40
3.75
  0
CIRCLE
  8
101
 62
7
 10
11.25
 20
73
 30
0
 40
2.650000000000009
  0
CIRCLE
  8
101
 62
7
 10
11.25
 20
73
 30
0
 40
3.75
  0
ARC
  8
101
 62
1
  6
DASHED
 10
249.5
 20
-9.5
 30
0
 40
0.5
 50
0
 51
90
  0
ARC
  8
101
 62
1
  6
DASHED
 10
249.5
 20
9.5
 30
0
 40
0.5
 50
270
 51
0
  0
ARC
  8
101
 62
1
  6
DASHED
 10
246.8000000000001
 20
12
 30
0
 40
2
 50
270
 51
0
  0
ARC
  8
101
 62
1
  6
DASHED
 10
246.8000000000001
 20
-12
 30
0
 40
2
 50
0
 51
90
  0
ARC
  8
101
 62
7
 10
247.8000000000001
 20
-156
 30
0
 40
1
 50
270
 51
0
  0
ARC
  8
101
 62
7
 10
247.8000000000001
 20
87
 30
0
 40
1
 50
0
 51
90
  0
ARC
  8
101
 62
1
  6
DASHED
 10
-9.499999999999984
 20
-249.5
 30
0
 40
0.5
 50
270
 51
0
  0
ARC
  8
101
 62
1
  6
DASHED
 10
9.500000000000016
 20
-249.5
 30
0
 40
0.5
 50
180
 51
270
  0
ARC
  8
101
 62
1
  6
DASHED
 10
12.00000000000001
 20
-246.8000000000001
 30
0
 40
1.999999999999991
 50
180
 51
270
  0
ARC
  8
101
 62
1
  6
DASHED
 10
-11.99999999999998
 20
-246.8000000000001
 30
0
 40
2
 50
270
 51
0
  0
ARC
  8
101
 62
7
 10
-21.5
 20
-247.8000000000001
 30
0
 40
1
 50
180
 51
270
  0
ARC
  8
101
 62
7
 10
21.5
 20
-247.8000000000001
 30
0
 40
1
 50
270
 51
0
  0
TEXT
  8
101
 62
7
 10
125
 20
-195
 30
0
 40
5
  1
Tuerschild
 41
0.9
  7
SIMPLEX
  0
TEXT
  8
101
 62
7
 10
125
 20
-205
 30
0
 40
5
  1
14180005
 41
0.9
  7
SIMPLEX
  0
ENDSEC
  0
EOF
