  0
SECTION
  2
HEADER
  9
$ACADVER
  1
AC1006
  9
$DWGCODEPAGE
  3
ansi_1252
  9
$INSBASE
 10
0.0
 20
0.0
 30
0.0
  9
$EXTMIN
 10
0.0
 20
0.0
  9
$EXTMAX
 10
100.0
 20
100.0
  9
$LIMMIN
 10
0.0
 20
0.0
  9
$LIMMAX
 10
100.0
 20
100.0
  9
$VIEWCTR
 10
6.591288
 20
4.579184
  9
$VIEWSIZE
 40
9.158369
  9
$SNAPMODE
 70
     0
  9
$SNAPUNIT
 10
1.0
 20
1.0
  9
$SNAPBASE
 10
0.0
 20
0.0
  9
$SNAPANG
 50
0.0
  9
$SNAPSTYLE
 70
     0
  9
$SNAPISOPAIR
 70
     0
  9
$GRIDMODE
 70
     0
  9
$GRIDUNIT
 10
0.0
 20
0.0
  9
$ORTHOMODE
 70
     0
  9
$REGENMODE
 70
     1
  9
$FILLMODE
 70
     1
  9
$QTEXTMODE
 70
     0
  9
$MIRRTEXT
 70
     1
  9
$DRAGMODE
 70
     2
  9
$LTSCALE
 40
1.0
  9
$OSMODE
 70
     0
  9
$ATTMODE
 70
     1
  9
$TEXTSIZE
 40
0.2
  9
$TRACEWID
 40
0.05
  9
$TEXTSTYLE
  7
STANDARD
  9
$CLAYER
  8
0
  9
$CELTYPE
  6
CONTINUOUS
  9
$CECOLOR
 62
   256
  9
$DIMSCALE
 40
1.0
  9
$DIMASZ
 40
0.18
  9
$DIMEXO
 40
0.0625
  9
$DIMDLI
 40
0.38
  9
$DIMRND
 40
0.0
  9
$DIMDLE
 40
0.0
  9
$DIMEXE
 40
0.18
  9
$DIMTP
 40
0.0
  9
$DIMTM
 40
0.0
  9
$DIMTXT
 40
0.18
  9
$DIMCEN
 40
0.09
  9
$DIMTSZ
 40
0.0
  9
$DIMTOL
 70
     0
  9
$DIMLIM
 70
     0
  9
$DIMTIH
 70
     1
  9
$DIMTOH
 70
     1
  9
$DIMSE1
 70
     0
  9
$DIMSE2
 70
     0
  9
$DIMTAD
 70
     0
  9
$DIMZIN
 70
     0
  9
$DIMBLK
  1

  9
$DIMASO
 70
     1
  9
$DIMSHO
 70
     1
  9
$DIMPOST
  1

  9
$DIMAPOST
  1

  9
$DIMALT
 70
     0
  9
$DIMALTD
 70
     2
  9
$DIMALTF
 40
25.4
  9
$DIMLFAC
 40
1.0
  9
$DIMTOFL
 70
     0
  9
$DIMTVP
 40
0.0
  9
$DIMTIX
 70
     0
  9
$DIMSOXD
 70
     0
  9
$DIMSAH
 70
     0
  9
$DIMBLK1
  1

  9
$DIMBLK2
  1

  9
$LUNITS
 70
     2
  9
$LUPREC
 70
     4
  9
$AXISMODE
 70
     0
  9
$AXISUNIT
 10
0.0
 20
0.0
  9
$SKETCHINC
 40
0.1
  9
$FILLETRAD
 40
0.0
  9
$AUNITS
 70
     0
  9
$AUPREC
 70
     3
  9
$MENU
  1
acad
  9
$ELEVATION
 40
0.0
  9
$THICKNESS
 40
0.0
  9
$LIMCHECK
 70
     0
  9
$BLIPMODE
 70
     1
  9
$CHAMFERA
 40
0.0
  9
$CHAMFERB
 40
0.0
  9
$SKPOLY
 70
     0
  9
$TDCREATE
 40
0.000000000
  9
$TDUPDATE
 40
0.000000000
  9
$TDINDWG
 40
0.0000000000
  9
$TDUSRTIMER
 40
0.0000000000
  9
$USRTIMER
 70
     1
  9
$ANGBASE
 50
0.0
  9
$ANGDIR
 70
     0
  9
$PDMODE
 70
     0
  9
$PDSIZE
 40
0.0
  9
$PLINEWID
 40
0.0
  9
$COORDS
 70
     0
  9
$SPLFRAME
 70
     0
  9
$SPLINETYPE
 70
     6
  9
$SPLINESEGS
 70
     8
  9
$ATTDIA
 70
     0
  9
$ATTREQ
 70
     1
  9
$HANDLING
 70
     0
  9
$HANDSEED
  5
3
  9
$SURFTAB1
 70
     6
  9
$SURFTAB2
 70
     6
  9
$SURFTYPE
 70
     6
  9
$SURFU
 70
     6
  9
$SURFV
 70
     6
  9
$FLATLAND
 70
     0
  9
$UCSNAME
  2

  9
$UCSORG
 10
0.0
 20
0.0
 30
0.0
  9
$UCSXDIR
 10
1.0
 20
0.0
 30
0.0
  9
$UCSYDIR
 10
0.0
 20
1.0
 30
0.0
  9
$USERI1
 70
     0
  9
$USERI2
 70
     0
  9
$USERI3
 70
     0
  9
$USERI4
 70
     0
  9
$USERI5
 70
     0
  9
$USERR1
 40
0.0
  9
$USERR2
 40
0.0
  9
$USERR3
 40
0.0
  9
$USERR4
 40
0.0
  9
$USERR5
 40
0.0
  9
$WORLDVIEW
 70
     1
  0
ENDSEC
  0
SECTION
  2
TABLES
  0
TABLE
  2
VPORT
 70
     1
  0
VPORT
  2
*ACTIVE
 70
     0
 10
0.0
 20
0.0
 11
1.0
 21
1.0
 12
6.591288
 22
4.579184
 13
0.0
 23
0.0
 14
1.0
 24
1.0
 15
0.0
 25
0.0
 16
0.0
 26
0.0
 36
1.0
 17
0.0
 27
0.0
 37
0.0
 40
9.158369
 41
0.688564
 42
50.0
 43
0.0
 44
0.0
 50
0.0
 51
0.0
 71
     0
 72
   100
 73
     1
 74
     1
 75
     0
 76
     0
 77
     0
 78
     0
  0
ENDTAB
  0
TABLE
  2
LTYPE
 70
     3
  0
LTYPE
  2
CONTINUOUS
 70
     0
  3
Solid line
 72
    65
 73
     0
 40
0.0
  0
LTYPE
  2
DOT_CENTER
 70
     0
  3

 72
    65
 73
     0
 40
0.0
  0
LTYPE
  2
PHANTOM
 70
     0
  3

 72
    65
 73
     2
 40
380.999994
 49
304.799995
 49
-76.199999
  0
ENDTAB
  0
TABLE
  2
LAYER
 70
     2
  0
LAYER
  2
0
 70
     0
 62
     1
  6
CONTINUOUS
  0
LAYER
  2
101
 70
     0
 62
     1
  6
CONTINUOUS
  0
ENDTAB
  0
TABLE
  2
STYLE
 70
     1
  0
STYLE
  2
STANDARD
 70
     0
 40
0.0
 41
1.0
 50
0.0
 71
     0
 42
0.2
  3

  4

  0
ENDTAB
  0
TABLE
  2
VIEW
 70
     0
  0
ENDTAB
  0
TABLE
  2
UCS
 70
     0
  0
ENDTAB
  0
ENDSEC
  0
SECTION
  2
BLOCKS
  0
BLOCK
  8
0
  2
_G_T_1
 70
    64
 10
0.0
 20
0.0
  0
TEXT
  8
101
  6
CONTINUOUS
 62
     1
 10
125.0
 20
-196.449997
 30
0.0
 40
5.0
  1
Tuerschild
 41
1.000004
  0
TEXT
  8
101
  6
CONTINUOUS
 62
     1
 10
125.0
 20
-203.449997
 30
0.0
 40
5.0
  1
14330001
 41
1.000004
  0
ENDBLK
  8
0
  0
ENDSEC
  0
SECTION
  2
ENTITIES
  0
LINE
  8
101
  6
CONTINUOUS
 62
     1
 10
245.969414
 20
-131.375
 30
0.0
 11
241.099992
 21
-137.625
 31
0.0
  0
LINE
  8
101
  6
CONTINUOUS
 62
     1
 10
241.099992
 20
-131.375
 30
0.0
 11
245.969409
 21
-137.625
 31
0.0
  0
POLYLINE
  8
101
  6
PHANTOM
 62
     1
 66
     1
 10
0.0
 20
0.0
 30
0.0
  0
VERTEX
  8
101
  6
PHANTOM
 62
     1
 10
244.674992
 20
-134.5
 30
0.0
  0
VERTEX
  8
101
  6
PHANTOM
 62
     1
 10
244.683707
 20
-134.728038
 30
0.0
  0
VERTEX
  8
101
  6
PHANTOM
 62
     1
 10
244.708964
 20
-134.955372
 30
0.0
  0
VERTEX
  8
101
  6
PHANTOM
 62
     1
 10
244.749434
 20
-135.181028
 30
0.0
  0
VERTEX
  8
101
  6
PHANTOM
 62
     1
 10
244.803783
 20
-135.40403
 30
0.0
  0
VERTEX
  8
101
  6
PHANTOM
 62
     1
 10
244.870681
 20
-135.623405
 30
0.0
  0
VERTEX
  8
101
  6
PHANTOM
 62
     1
 10
245.037458
 20
-136.050392
 30
0.0
  0
VERTEX
  8
101
  6
PHANTOM
 62
     1
 10
245.349963
 20
-136.661974
 30
0.0
  0
VERTEX
  8
101
  6
PHANTOM
 62
     1
 10
245.969409
 20
-137.625
 30
0.0
  0
SEQEND
  8
0
  0
POLYLINE
  8
101
  6
PHANTOM
 62
     1
 66
     1
 10
0.0
 20
0.0
 30
0.0
  0
VERTEX
  8
101
  6
PHANTOM
 62
     1
 10
244.674992
 20
-134.5
 30
0.0
  0
VERTEX
  8
101
  6
PHANTOM
 62
     1
 10
244.683707
 20
-134.271963
 30
0.0
  0
VERTEX
  8
101
  6
PHANTOM
 62
     1
 10
244.708965
 20
-134.044628
 30
0.0
  0
VERTEX
  8
101
  6
PHANTOM
 62
     1
 10
244.749434
 20
-133.818973
 30
0.0
  0
VERTEX
  8
101
  6
PHANTOM
 62
     1
 10
244.803783
 20
-133.59597
 30
0.0
  0
VERTEX
  8
101
  6
PHANTOM
 62
     1
 10
244.870681
 20
-133.376596
 30
0.0
  0
VERTEX
  8
101
  6
PHANTOM
 62
     1
 10
245.037458
 20
-132.949609
 30
0.0
  0
VERTEX
  8
101
  6
PHANTOM
 62
     1
 10
245.349963
 20
-132.338027
 30
0.0
  0
VERTEX
  8
101
  6
PHANTOM
 62
     1
 10
245.969409
 20
-131.375
 30
0.0
  0
SEQEND
  8
0
  0
POLYLINE
  8
101
  6
PHANTOM
 62
     1
 66
     1
 10
0.0
 20
0.0
 30
0.0
  0
VERTEX
  8
101
  6
PHANTOM
 62
     1
 10
244.675001
 20
-131.375
 30
0.0
  0
VERTEX
  8
101
  6
PHANTOM
 62
     1
 10
244.684624
 20
-131.375
 30
0.0
  0
VERTEX
  8
101
  6
PHANTOM
 62
     1
 10
244.713026
 20
-131.375
 30
0.0
  0
VERTEX
  8
101
  6
PHANTOM
 62
     1
 10
244.821338
 20
-131.375
 30
0.0
  0
VERTEX
  8
101
  6
PHANTOM
 62
     1
 10
244.986295
 20
-131.375
 30
0.0
  0
VERTEX
  8
101
  6
PHANTOM
 62
     1
 10
245.193969
 20
-131.375
 30
0.0
  0
VERTEX
  8
101
  6
PHANTOM
 62
     1
 10
245.43218
 20
-131.375
 30
0.0
  0
VERTEX
  8
101
  6
PHANTOM
 62
     1
 10
245.692633
 20
-131.375
 30
0.0
  0
VERTEX
  8
101
  6
PHANTOM
 62
     1
 10
245.969409
 20
-131.375
 30
0.0
  0
SEQEND
  8
0
  0
POLYLINE
  8
101
  6
PHANTOM
 62
     1
 66
     1
 10
0.0
 20
0.0
 30
0.0
  0
VERTEX
  8
101
  6
PHANTOM
 62
     1
 10
244.675001
 20
-137.625
 30
0.0
  0
VERTEX
  8
101
  6
PHANTOM
 62
     1
 10
244.684624
 20
-137.625
 30
0.0
  0
VERTEX
  8
101
  6
PHANTOM
 62
     1
 10
244.713026
 20
-137.625
 30
0.0
  0
VERTEX
  8
101
  6
PHANTOM
 62
     1
 10
244.821338
 20
-137.625
 30
0.0
  0
VERTEX
  8
101
  6
PHANTOM
 62
     1
 10
244.986295
 20
-137.625
 30
0.0
  0
VERTEX
  8
101
  6
PHANTOM
 62
     1
 10
245.193968
 20
-137.625
 30
0.0
  0
VERTEX
  8
101
  6
PHANTOM
 62
     1
 10
245.43218
 20
-137.625
 30
0.0
  0
VERTEX
  8
101
  6
PHANTOM
 62
     1
 10
245.692632
 20
-137.625
 30
0.0
  0
VERTEX
  8
101
  6
PHANTOM
 62
     1
 10
245.969409
 20
-137.625
 30
0.0
  0
SEQEND
  8
0
  0
LINE
  8
101
  6
PHANTOM
 62
     1
 10
248.099991
 20
-139.25
 30
0.0
 11
246.299991
 21
-139.25
 31
0.0
  0
LINE
  8
101
  6
PHANTOM
 62
     1
 10
248.099992
 20
-129.75
 30
0.0
 11
246.299992
 21
-129.75
 31
0.0
  0
LINE
  8
101
  6
PHANTOM
 62
     1
 10
246.299992
 20
-129.75
 30
0.0
 11
244.674992
 21
-131.375
 31
0.0
  0
LINE
  8
101
  6
PHANTOM
 62
     1
 10
246.299991
 20
-139.25
 30
0.0
 11
244.674992
 21
-137.625
 31
0.0
  0
LINE
  8
101
  6
PHANTOM
 62
     1
 10
248.099991
 20
-139.25
 30
0.0
 11
248.099992
 21
-129.75
 31
0.0
  0
LINE
  8
101
  6
PHANTOM
 62
     1
 10
246.299991
 20
-139.25
 30
0.0
 11
246.299992
 21
-129.75
 31
0.0
  0
LINE
  8
101
  6
PHANTOM
 62
     1
 10
248.999993
 20
-8.999983
 30
0.0
 11
242.299993
 21
-8.999983
 31
0.0
  0
LINE
  8
101
  6
PHANTOM
 62
     1
 10
248.999994
 20
9.000017
 30
0.0
 11
242.299994
 21
9.000017
 31
0.0
  0
ARC
  8
101
  6
PHANTOM
 62
     1
 10
248.999982
 20
10.000029
 30
0.0
 40
1.000012
 50
270.000682
 51
359.999313
  0
ARC
  8
101
  6
PHANTOM
 62
     1
 10
248.999981
 20
-9.999995
 30
0.0
 40
1.000012
 50
0.000682
 51
89.999313
  0
LINE
  8
101
  6
PHANTOM
 62
     1
 10
249.999994
 20
11.250017
 30
0.0
 11
249.999994
 21
10.000017
 31
0.0
  0
LINE
  8
101
  6
PHANTOM
 62
     1
 10
249.999993
 20
-9.999983
 30
0.0
 11
249.999993
 21
-11.249983
 31
0.0
  0
LINE
  8
101
  6
PHANTOM
 62
     1
 10
246.199994
 20
12.250017
 30
0.0
 11
248.999994
 21
12.250017
 31
0.0
  0
LINE
  8
101
  6
PHANTOM
 62
     1
 10
246.199993
 20
-12.249983
 30
0.0
 11
248.999993
 21
-12.249983
 31
0.0
  0
ARC
  8
101
  6
PHANTOM
 62
     1
 10
248.999981
 20
-11.249971
 30
0.0
 40
1.000012
 50
270.000682
 51
359.999313
  0
ARC
  8
101
  6
PHANTOM
 62
     1
 10
248.999982
 20
11.250005
 30
0.0
 40
1.000012
 50
0.000682
 51
89.999313
  0
LINE
  8
101
  6
PHANTOM
 62
     1
 10
251.699994
 20
12.500017
 30
0.0
 11
248.699994
 21
12.500017
 31
0.0
  0
LINE
  8
101
  6
DOT_CENTER
 62
     1
 10
252.006501
 20
0.000017
 30
0.0
 11
241.006501
 21
0.000017
 31
0.0
  0
LINE
  8
101
  6
DOT_CENTER
 62
     1
 10
235.799991
 20
75.5
 30
0.0
 11
249.799991
 21
75.5
 31
0.0
  0
LINE
  8
101
  6
DOT_CENTER
 62
     1
 10
235.799991
 20
-21.5
 30
0.0
 11
249.799991
 21
-21.5
 31
0.0
  0
LINE
  8
101
  6
DOT_CENTER
 62
     1
 10
235.799991
 20
-134.5
 30
0.0
 11
249.799991
 21
-134.5
 31
0.0
  0
LINE
  8
101
  6
CONTINUOUS
 62
     7
 10
245.43294
 20
92.25
 30
0.0
 11
242.199992
 21
92.25
 31
0.0
  0
LINE
  8
101
  6
CONTINUOUS
 62
     7
 10
245.43294
 20
-171.25
 30
0.0
 11
242.199992
 21
-171.25
 31
0.0
  0
LINE
  8
101
  6
CONTINUOUS
 62
     7
 10
242.199992
 20
92.25
 30
0.0
 11
242.199992
 21
-171.25
 31
0.0
  0
LINE
  8
101
  6
CONTINUOUS
 62
     7
 10
236.799991
 20
70.788243
 30
0.0
 11
236.799991
 21
80.211757
 31
0.0
  0
LINE
  8
101
  6
CONTINUOUS
 62
     7
 10
242.199991
 20
80.494759
 30
0.0
 11
236.799991
 21
80.211757
 31
0.0
  0
LINE
  8
101
  6
CONTINUOUS
 62
     7
 10
242.199991
 20
70.505241
 30
0.0
 11
236.799991
 21
70.788243
 31
0.0
  0
LINE
  8
101
  6
CONTINUOUS
 62
     7
 10
236.799991
 20
-139.211757
 30
0.0
 11
236.799991
 21
-129.788243
 31
0.0
  0
LINE
  8
101
  6
CONTINUOUS
 62
     7
 10
242.199991
 20
-129.505241
 30
0.0
 11
236.799991
 21
-129.788243
 31
0.0
  0
LINE
  8
101
  6
CONTINUOUS
 62
     7
 10
242.199991
 20
-139.494759
 30
0.0
 11
236.799991
 21
-139.211757
 31
0.0
  0
LINE
  8
101
  6
CONTINUOUS
 62
     7
 10
236.799991
 20
-16.788243
 30
0.0
 11
236.799991
 21
-26.211757
 31
0.0
  0
LINE
  8
101
  6
CONTINUOUS
 62
     7
 10
242.199991
 20
-26.494759
 30
0.0
 11
236.799991
 21
-26.211757
 31
0.0
  0
LINE
  8
101
  6
CONTINUOUS
 62
     7
 10
242.199991
 20
-16.505241
 30
0.0
 11
236.799991
 21
-16.788243
 31
0.0
  0
LINE
  8
101
  6
CONTINUOUS
 62
     7
 10
248.046529
 20
-172.0
 30
0.0
 11
248.046529
 21
93.0
 31
0.0
  0
POLYLINE
  8
101
  6
CONTINUOUS
 62
     7
 66
     1
 10
0.0
 20
0.0
 30
0.0
  0
VERTEX
  8
101
  6
CONTINUOUS
 62
     7
 10
251.699991
 20
12.5
 30
0.0
  0
VERTEX
  8
101
  6
CONTINUOUS
 62
     7
 10
251.700109
 20
12.499982
 30
0.0
  0
VERTEX
  8
101
  6
CONTINUOUS
 62
     7
 10
251.700215
 20
12.499954
 30
0.0
  0
VERTEX
  8
101
  6
CONTINUOUS
 62
     7
 10
251.700264
 20
12.499937
 30
0.0
  0
VERTEX
  8
101
  6
CONTINUOUS
 62
     7
 10
251.70031
 20
12.499918
 30
0.0
  0
VERTEX
  8
101
  6
CONTINUOUS
 62
     7
 10
251.700354
 20
12.499897
 30
0.0
  0
VERTEX
  8
101
  6
CONTINUOUS
 62
     7
 10
251.700395
 20
12.499874
 30
0.0
  0
VERTEX
  8
101
  6
CONTINUOUS
 62
     7
 10
251.700433
 20
12.499849
 30
0.0
  0
VERTEX
  8
101
  6
CONTINUOUS
 62
     7
 10
251.700469
 20
12.499821
 30
0.0
  0
VERTEX
  8
101
  6
CONTINUOUS
 62
     7
 10
251.700503
 20
12.499792
 30
0.0
  0
VERTEX
  8
101
  6
CONTINUOUS
 62
     7
 10
251.700534
 20
12.499761
 30
0.0
  0
VERTEX
  8
101
  6
CONTINUOUS
 62
     7
 10
251.700562
 20
12.499728
 30
0.0
  0
VERTEX
  8
101
  6
CONTINUOUS
 62
     7
 10
251.700589
 20
12.499693
 30
0.0
  0
VERTEX
  8
101
  6
CONTINUOUS
 62
     7
 10
251.700613
 20
12.499656
 30
0.0
  0
VERTEX
  8
101
  6
CONTINUOUS
 62
     7
 10
251.700635
 20
12.499617
 30
0.0
  0
VERTEX
  8
101
  6
CONTINUOUS
 62
     7
 10
251.700655
 20
12.499577
 30
0.0
  0
VERTEX
  8
101
  6
CONTINUOUS
 62
     7
 10
251.700672
 20
12.499535
 30
0.0
  0
VERTEX
  8
101
  6
CONTINUOUS
 62
     7
 10
251.700701
 20
12.499446
 30
0.0
  0
VERTEX
  8
101
  6
CONTINUOUS
 62
     7
 10
251.700722
 20
12.49935
 30
0.0
  0
VERTEX
  8
101
  6
CONTINUOUS
 62
     7
 10
251.700735
 20
12.499248
 30
0.0
  0
VERTEX
  8
101
  6
CONTINUOUS
 62
     7
 10
251.700741
 20
12.499141
 30
0.0
  0
VERTEX
  8
101
  6
CONTINUOUS
 62
     7
 10
251.70074
 20
12.499028
 30
0.0
  0
VERTEX
  8
101
  6
CONTINUOUS
 62
     7
 10
251.700718
 20
12.498786
 30
0.0
  0
VERTEX
  8
101
  6
CONTINUOUS
 62
     7
 10
251.700673
 20
12.498525
 30
0.0
  0
VERTEX
  8
101
  6
CONTINUOUS
 62
     7
 10
251.700523
 20
12.497956
 30
0.0
  0
VERTEX
  8
101
  6
CONTINUOUS
 62
     7
 10
251.699446
 20
12.495073
 30
0.0
  0
VERTEX
  8
101
  6
CONTINUOUS
 62
     7
 10
251.699206
 20
12.49432
 30
0.0
  0
VERTEX
  8
101
  6
CONTINUOUS
 62
     7
 10
251.699027
 20
12.493616
 30
0.0
  0
VERTEX
  8
101
  6
CONTINUOUS
 62
     7
 10
251.6989
 20
12.492953
 30
0.0
  0
VERTEX
  8
101
  6
CONTINUOUS
 62
     7
 10
251.698769
 20
12.491726
 30
0.0
  0
VERTEX
  8
101
  6
CONTINUOUS
 62
     7
 10
251.698765
 20
12.488917
 30
0.0
  0
VERTEX
  8
101
  6
CONTINUOUS
 62
     7
 10
251.698548
 20
12.485603
 30
0.0
  0
VERTEX
  8
101
  6
CONTINUOUS
 62
     7
 10
251.697813
 20
12.480302
 30
0.0
  0
VERTEX
  8
101
  6
CONTINUOUS
 62
     7
 10
251.6951
 20
12.455702
 30
0.0
  0
VERTEX
  8
101
  6
CONTINUOUS
 62
     7
 10
251.691312
 20
12.421287
 30
0.0
  0
VERTEX
  8
101
  6
CONTINUOUS
 62
     7
 10
251.686456
 20
12.377075
 30
0.0
  0
VERTEX
  8
101
  6
CONTINUOUS
 62
     7
 10
251.680551
 20
12.323108
 30
0.0
  0
VERTEX
  8
101
  6
CONTINUOUS
 62
     7
 10
251.66569
 20
12.186143
 30
0.0
  0
VERTEX
  8
101
  6
CONTINUOUS
 62
     7
 10
251.646927
 20
12.010862
 30
0.0
  0
VERTEX
  8
101
  6
CONTINUOUS
 62
     7
 10
251.62446
 20
11.797738
 30
0.0
  0
VERTEX
  8
101
  6
CONTINUOUS
 62
     7
 10
251.598563
 20
11.547449
 30
0.0
  0
VERTEX
  8
101
  6
CONTINUOUS
 62
     7
 10
251.569607
 20
11.260932
 30
0.0
  0
VERTEX
  8
101
  6
CONTINUOUS
 62
     7
 10
251.537968
 20
10.939141
 30
0.0
  0
VERTEX
  8
101
  6
CONTINUOUS
 62
     7
 10
251.504025
 20
10.583034
 30
0.0
  0
VERTEX
  8
101
  6
CONTINUOUS
 62
     7
 10
251.430844
 20
9.772158
 30
0.0
  0
VERTEX
  8
101
  6
CONTINUOUS
 62
     7
 10
251.353766
 20
8.838795
 30
0.0
  0
VERTEX
  8
101
  6
CONTINUOUS
 62
     7
 10
251.276666
 20
7.794343
 30
0.0
  0
VERTEX
  8
101
  6
CONTINUOUS
 62
     7
 10
251.203332
 20
6.651893
 30
0.0
  0
VERTEX
  8
101
  6
CONTINUOUS
 62
     7
 10
251.137488
 20
5.425635
 30
0.0
  0
VERTEX
  8
101
  6
CONTINUOUS
 62
     7
 10
251.082459
 20
4.130656
 30
0.0
  0
VERTEX
  8
101
  6
CONTINUOUS
 62
     7
 10
251.040983
 20
2.783334
 30
0.0
  0
VERTEX
  8
101
  6
CONTINUOUS
 62
     7
 10
251.006514
 20
0.000005
 30
0.0
  0
VERTEX
  8
101
  6
CONTINUOUS
 62
     7
 10
251.04099
 20
-2.783325
 30
0.0
  0
VERTEX
  8
101
  6
CONTINUOUS
 62
     7
 10
251.082436
 20
-4.130688
 30
0.0
  0
VERTEX
  8
101
  6
CONTINUOUS
 62
     7
 10
251.137491
 20
-5.425593
 30
0.0
  0
VERTEX
  8
101
  6
CONTINUOUS
 62
     7
 10
251.203323
 20
-6.651957
 30
0.0
  0
VERTEX
  8
101
  6
CONTINUOUS
 62
     7
 10
251.276651
 20
-7.794411
 30
0.0
  0
VERTEX
  8
101
  6
CONTINUOUS
 62
     7
 10
251.353774
 20
-8.838811
 30
0.0
  0
VERTEX
  8
101
  6
CONTINUOUS
 62
     7
 10
251.430827
 20
-9.772015
 30
0.0
  0
VERTEX
  8
101
  6
CONTINUOUS
 62
     7
 10
251.504028
 20
-10.58293
 30
0.0
  0
VERTEX
  8
101
  6
CONTINUOUS
 62
     7
 10
251.53801
 20
-10.939231
 30
0.0
  0
VERTEX
  8
101
  6
CONTINUOUS
 62
     7
 10
251.569627
 20
-11.261033
 30
0.0
  0
VERTEX
  8
101
  6
CONTINUOUS
 62
     7
 10
251.598514
 20
-11.547381
 30
0.0
  0
VERTEX
  8
101
  6
CONTINUOUS
 62
     7
 10
251.62436
 20
-11.797518
 30
0.0
  0
VERTEX
  8
101
  6
CONTINUOUS
 62
     7
 10
251.646857
 20
-12.010692
 30
0.0
  0
VERTEX
  8
101
  6
CONTINUOUS
 62
     7
 10
251.665693
 20
-12.186147
 30
0.0
  0
VERTEX
  8
101
  6
CONTINUOUS
 62
     7
 10
251.680572
 20
-12.323159
 30
0.0
  0
VERTEX
  8
101
  6
CONTINUOUS
 62
     7
 10
251.686467
 20
-12.377101
 30
0.0
  0
VERTEX
  8
101
  6
CONTINUOUS
 62
     7
 10
251.691314
 20
-12.421293
 30
0.0
  0
VERTEX
  8
101
  6
CONTINUOUS
 62
     7
 10
251.6951
 20
-12.455703
 30
0.0
  0
VERTEX
  8
101
  6
CONTINUOUS
 62
     7
 10
251.697813
 20
-12.480303
 30
0.0
  0
VERTEX
  8
101
  6
CONTINUOUS
 62
     7
 10
251.698446
 20
-12.484736
 30
0.0
  0
VERTEX
  8
101
  6
CONTINUOUS
 62
     7
 10
251.698671
 20
-12.486879
 30
0.0
  0
VERTEX
  8
101
  6
CONTINUOUS
 62
     7
 10
251.698765
 20
-12.488918
 30
0.0
  0
VERTEX
  8
101
  6
CONTINUOUS
 62
     7
 10
251.698748
 20
-12.491148
 30
0.0
  0
VERTEX
  8
101
  6
CONTINUOUS
 62
     7
 10
251.698817
 20
-12.492326
 30
0.0
  0
VERTEX
  8
101
  6
CONTINUOUS
 62
     7
 10
251.6989
 20
-12.492954
 30
0.0
  0
VERTEX
  8
101
  6
CONTINUOUS
 62
     7
 10
251.699027
 20
-12.493616
 30
0.0
  0
VERTEX
  8
101
  6
CONTINUOUS
 62
     7
 10
251.699206
 20
-12.494321
 30
0.0
  0
VERTEX
  8
101
  6
CONTINUOUS
 62
     7
 10
251.699446
 20
-12.495073
 30
0.0
  0
VERTEX
  8
101
  6
CONTINUOUS
 62
     7
 10
251.700425
 20
-12.497653
 30
0.0
  0
VERTEX
  8
101
  6
CONTINUOUS
 62
     7
 10
251.700607
 20
-12.498248
 30
0.0
  0
VERTEX
  8
101
  6
CONTINUOUS
 62
     7
 10
251.700673
 20
-12.498525
 30
0.0
  0
VERTEX
  8
101
  6
CONTINUOUS
 62
     7
 10
251.700718
 20
-12.498786
 30
0.0
  0
VERTEX
  8
101
  6
CONTINUOUS
 62
     7
 10
251.70074
 20
-12.499028
 30
0.0
  0
VERTEX
  8
101
  6
CONTINUOUS
 62
     7
 10
251.700741
 20
-12.499141
 30
0.0
  0
VERTEX
  8
101
  6
CONTINUOUS
 62
     7
 10
251.700735
 20
-12.499248
 30
0.0
  0
VERTEX
  8
101
  6
CONTINUOUS
 62
     7
 10
251.700722
 20
-12.49935
 30
0.0
  0
VERTEX
  8
101
  6
CONTINUOUS
 62
     7
 10
251.700701
 20
-12.499446
 30
0.0
  0
VERTEX
  8
101
  6
CONTINUOUS
 62
     7
 10
251.700672
 20
-12.499535
 30
0.0
  0
VERTEX
  8
101
  6
CONTINUOUS
 62
     7
 10
251.700655
 20
-12.499577
 30
0.0
  0
VERTEX
  8
101
  6
CONTINUOUS
 62
     7
 10
251.700635
 20
-12.499617
 30
0.0
  0
VERTEX
  8
101
  6
CONTINUOUS
 62
     7
 10
251.700613
 20
-12.499656
 30
0.0
  0
VERTEX
  8
101
  6
CONTINUOUS
 62
     7
 10
251.700589
 20
-12.499693
 30
0.0
  0
VERTEX
  8
101
  6
CONTINUOUS
 62
     7
 10
251.700562
 20
-12.499728
 30
0.0
  0
VERTEX
  8
101
  6
CONTINUOUS
 62
     7
 10
251.700534
 20
-12.499761
 30
0.0
  0
VERTEX
  8
101
  6
CONTINUOUS
 62
     7
 10
251.700503
 20
-12.499792
 30
0.0
  0
VERTEX
  8
101
  6
CONTINUOUS
 62
     7
 10
251.700469
 20
-12.499821
 30
0.0
  0
VERTEX
  8
101
  6
CONTINUOUS
 62
     7
 10
251.700433
 20
-12.499849
 30
0.0
  0
VERTEX
  8
101
  6
CONTINUOUS
 62
     7
 10
251.700395
 20
-12.499874
 30
0.0
  0
VERTEX
  8
101
  6
CONTINUOUS
 62
     7
 10
251.700354
 20
-12.499897
 30
0.0
  0
VERTEX
  8
101
  6
CONTINUOUS
 62
     7
 10
251.70031
 20
-12.499918
 30
0.0
  0
VERTEX
  8
101
  6
CONTINUOUS
 62
     7
 10
251.700264
 20
-12.499938
 30
0.0
  0
VERTEX
  8
101
  6
CONTINUOUS
 62
     7
 10
251.700215
 20
-12.499954
 30
0.0
  0
VERTEX
  8
101
  6
CONTINUOUS
 62
     7
 10
251.700109
 20
-12.499982
 30
0.0
  0
VERTEX
  8
101
  6
CONTINUOUS
 62
     7
 10
251.699991
 20
-12.5
 30
0.0
  0
SEQEND
  8
0
  0
POLYLINE
  8
101
  6
CONTINUOUS
 62
     7
 66
     1
 10
0.0
 20
0.0
 30
0.0
  0
VERTEX
  8
101
  6
CONTINUOUS
 62
     7
 10
251.699991
 20
-63.25
 30
0.0
  0
VERTEX
  8
101
  6
CONTINUOUS
 62
     7
 10
251.700043
 20
-63.250006
 30
0.0
  0
VERTEX
  8
101
  6
CONTINUOUS
 62
     7
 10
251.700091
 20
-63.250016
 30
0.0
  0
VERTEX
  8
101
  6
CONTINUOUS
 62
     7
 10
251.700113
 20
-63.250023
 30
0.0
  0
VERTEX
  8
101
  6
CONTINUOUS
 62
     7
 10
251.700134
 20
-63.25003
 30
0.0
  0
VERTEX
  8
101
  6
CONTINUOUS
 62
     7
 10
251.700154
 20
-63.250039
 30
0.0
  0
VERTEX
  8
101
  6
CONTINUOUS
 62
     7
 10
251.700173
 20
-63.250048
 30
0.0
  0
VERTEX
  8
101
  6
CONTINUOUS
 62
     7
 10
251.700191
 20
-63.250058
 30
0.0
  0
VERTEX
  8
101
  6
CONTINUOUS
 62
     7
 10
251.700208
 20
-63.250069
 30
0.0
  0
VERTEX
  8
101
  6
CONTINUOUS
 62
     7
 10
251.700223
 20
-63.250081
 30
0.0
  0
VERTEX
  8
101
  6
CONTINUOUS
 62
     7
 10
251.700238
 20
-63.250094
 30
0.0
  0
VERTEX
  8
101
  6
CONTINUOUS
 62
     7
 10
251.700252
 20
-63.250108
 30
0.0
  0
VERTEX
  8
101
  6
CONTINUOUS
 62
     7
 10
251.700265
 20
-63.250122
 30
0.0
  0
VERTEX
  8
101
  6
CONTINUOUS
 62
     7
 10
251.700277
 20
-63.250138
 30
0.0
  0
VERTEX
  8
101
  6
CONTINUOUS
 62
     7
 10
251.700288
 20
-63.250154
 30
0.0
  0
VERTEX
  8
101
  6
CONTINUOUS
 62
     7
 10
251.700298
 20
-63.25017
 30
0.0
  0
VERTEX
  8
101
  6
CONTINUOUS
 62
     7
 10
251.700307
 20
-63.250188
 30
0.0
  0
VERTEX
  8
101
  6
CONTINUOUS
 62
     7
 10
251.700323
 20
-63.250226
 30
0.0
  0
VERTEX
  8
101
  6
CONTINUOUS
 62
     7
 10
251.700335
 20
-63.250266
 30
0.0
  0
VERTEX
  8
101
  6
CONTINUOUS
 62
     7
 10
251.700344
 20
-63.250309
 30
0.0
  0
VERTEX
  8
101
  6
CONTINUOUS
 62
     7
 10
251.70035
 20
-63.250355
 30
0.0
  0
VERTEX
  8
101
  6
CONTINUOUS
 62
     7
 10
251.700353
 20
-63.250403
 30
0.0
  0
VERTEX
  8
101
  6
CONTINUOUS
 62
     7
 10
251.70035
 20
-63.250507
 30
0.0
  0
VERTEX
  8
101
  6
CONTINUOUS
 62
     7
 10
251.700337
 20
-63.25062
 30
0.0
  0
VERTEX
  8
101
  6
CONTINUOUS
 62
     7
 10
251.700285
 20
-63.250869
 30
0.0
  0
VERTEX
  8
101
  6
CONTINUOUS
 62
     7
 10
251.699821
 20
-63.252181
 30
0.0
  0
VERTEX
  8
101
  6
CONTINUOUS
 62
     7
 10
251.699539
 20
-63.253033
 30
0.0
  0
VERTEX
  8
101
  6
CONTINUOUS
 62
     7
 10
251.699338
 20
-63.253816
 30
0.0
  0
VERTEX
  8
101
  6
CONTINUOUS
 62
     7
 10
251.699206
 20
-63.254539
 30
0.0
  0
VERTEX
  8
101
  6
CONTINUOUS
 62
     7
 10
251.699133
 20
-63.255211
 30
0.0
  0
VERTEX
  8
101
  6
CONTINUOUS
 62
     7
 10
251.699108
 20
-63.255843
 30
0.0
  0
VERTEX
  8
101
  6
CONTINUOUS
 62
     7
 10
251.699158
 20
-63.257022
 30
0.0
  0
VERTEX
  8
101
  6
CONTINUOUS
 62
     7
 10
251.699314
 20
-63.25872
 30
0.0
  0
VERTEX
  8
101
  6
CONTINUOUS
 62
     7
 10
251.699356
 20
-63.260717
 30
0.0
  0
VERTEX
  8
101
  6
CONTINUOUS
 62
     7
 10
251.698471
 20
-63.269608
 30
0.0
  0
VERTEX
  8
101
  6
CONTINUOUS
 62
     7
 10
251.697295
 20
-63.284837
 30
0.0
  0
VERTEX
  8
101
  6
CONTINUOUS
 62
     7
 10
251.693956
 20
-63.328289
 30
0.0
  0
VERTEX
  8
101
  6
CONTINUOUS
 62
     7
 10
251.689314
 20
-63.389013
 30
0.0
  0
VERTEX
  8
101
  6
CONTINUOUS
 62
     7
 10
251.683393
 20
-63.46694
 30
0.0
  0
VERTEX
  8
101
  6
CONTINUOUS
 62
     7
 10
251.676241
 20
-63.561902
 30
0.0
  0
VERTEX
  8
101
  6
CONTINUOUS
 62
     7
 10
251.667934
 20
-63.673634
 30
0.0
  0
VERTEX
  8
101
  6
CONTINUOUS
 62
     7
 10
251.65855
 20
-63.801866
 30
0.0
  0
VERTEX
  8
101
  6
CONTINUOUS
 62
     7
 10
251.636859
 20
-64.106753
 30
0.0
  0
VERTEX
  8
101
  6
CONTINUOUS
 62
     7
 10
251.611787
 20
-64.474395
 30
0.0
  0
VERTEX
  8
101
  6
CONTINUOUS
 62
     7
 10
251.584088
 20
-64.901992
 30
0.0
  0
VERTEX
  8
101
  6
CONTINUOUS
 62
     7
 10
251.554689
 20
-65.385946
 30
0.0
  0
VERTEX
  8
101
  6
CONTINUOUS
 62
     7
 10
251.524523
 20
-65.922548
 30
0.0
  0
VERTEX
  8
101
  6
CONTINUOUS
 62
     7
 10
251.494535
 20
-66.507448
 30
0.0
  0
VERTEX
  8
101
  6
CONTINUOUS
 62
     7
 10
251.438862
 20
-67.803112
 30
0.0
  0
VERTEX
  8
101
  6
CONTINUOUS
 62
     7
 10
251.394696
 20
-69.232476
 30
0.0
  0
VERTEX
  8
101
  6
CONTINUOUS
 62
     7
 10
251.367676
 20
-70.75013
 30
0.0
  0
VERTEX
  8
101
  6
CONTINUOUS
 62
     7
 10
251.361153
 20
-72.30762
 30
0.0
  0
VERTEX
  8
101
  6
CONTINUOUS
 62
     7
 10
251.375987
 20
-73.855357
 30
0.0
  0
VERTEX
  8
101
  6
CONTINUOUS
 62
     7
 10
251.410348
 20
-75.343843
 30
0.0
  0
VERTEX
  8
101
  6
CONTINUOUS
 62
     7
 10
251.459786
 20
-76.725608
 30
0.0
  0
VERTEX
  8
101
  6
CONTINUOUS
 62
     7
 10
251.577968
 20
-79.0
 30
0.0
  0
SEQEND
  8
0
  0
LINE
  8
101
  6
CONTINUOUS
 62
     7
 10
251.577968
 20
-91.8
 30
0.0
 11
251.577968
 21
-79.0
 31
0.0
  0
ARC
  8
101
  6
CONTINUOUS
 62
     7
 10
364.724196
 20
-91.796606
 30
0.0
 40
113.146228
 50
180.001719
 51
182.661207
  0
LINE
  8
101
  6
CONTINUOUS
 62
     7
 10
251.699991
 20
-172.0
 30
0.0
 11
251.699991
 21
-97.05
 31
0.0
  0
LINE
  8
101
  6
CONTINUOUS
 62
     7
 10
251.699991
 20
-63.25
 30
0.0
 11
251.699991
 21
-12.5
 31
0.0
  0
LINE
  8
101
  6
CONTINUOUS
 62
     7
 10
251.699991
 20
12.5
 30
0.0
 11
251.699991
 21
93.0
 31
0.0
  0
LINE
  8
101
  6
CONTINUOUS
 62
     7
 10
245.43294
 20
-172.0
 30
0.0
 11
245.43294
 21
93.0
 31
0.0
  0
LINE
  8
101
  6
DOT_CENTER
 62
     1
 10
0.0
 20
-235.799983
 30
0.0
 11
0.0
 21
-252.799983
 31
0.0
  0
LINE
  8
101
  6
CONTINUOUS
 62
     7
 10
-26.000002
 20
-245.583098
 30
0.0
 11
-26.000002
 21
-242.199984
 31
0.0
  0
LINE
  8
101
  6
CONTINUOUS
 62
     7
 10
-26.000002
 20
-242.199984
 30
0.0
 11
25.999998
 21
-242.199984
 31
0.0
  0
LINE
  8
101
  6
CONTINUOUS
 62
     7
 10
25.999998
 20
-242.199984
 30
0.0
 11
25.999998
 21
-245.583098
 31
0.0
  0
LINE
  8
101
  6
CONTINUOUS
 62
     7
 10
-4.711759
 20
-236.799983
 30
0.0
 11
4.711755
 21
-236.799983
 31
0.0
  0
LINE
  8
101
  6
CONTINUOUS
 62
     7
 10
4.994757
 20
-242.199983
 30
0.0
 11
4.711755
 21
-236.799983
 31
0.0
  0
LINE
  8
101
  6
CONTINUOUS
 62
     7
 10
-4.994761
 20
-242.199983
 30
0.0
 11
-4.711759
 21
-236.799983
 31
0.0
  0
ARC
  8
101
  6
CONTINUOUS
 62
     7
 10
-0.000002
 20
-138.699984
 30
0.0
 40
110.0
 50
256.01686
 51
283.98314
  0
ARC
  8
101
  6
CONTINUOUS
 62
     7
 10
-26.64041
 20
-245.682932
 30
0.0
 40
0.25
 50
76.01686
 51
165.886938
  0
LINE
  8
101
  6
CONTINUOUS
 62
     7
 10
-26.882864
 20
-245.621973
 30
0.0
 11
-27.492456
 21
-248.04652
 31
0.0
  0
ARC
  8
101
  6
CONTINUOUS
 62
     7
 10
-27.250002
 20
-248.107479
 30
0.0
 40
0.25
 50
165.886938
 51
256.01398
  0
ARC
  8
101
  6
CONTINUOUS
 62
     7
 10
-0.000002
 20
-138.699984
 30
0.0
 40
113.0
 50
256.01398
 51
283.98602
  0
ARC
  8
101
  6
CONTINUOUS
 62
     7
 10
27.249998
 20
-248.107479
 30
0.0
 40
0.25
 50
283.98602
 51
14.113062
  0
LINE
  8
101
  6
CONTINUOUS
 62
     7
 10
27.492452
 20
-248.04652
 30
0.0
 11
26.88286
 21
-245.621973
 31
0.0
  0
ARC
  8
101
  6
CONTINUOUS
 62
     7
 10
26.640406
 20
-245.682932
 30
0.0
 40
0.25
 50
14.113062
 51
103.98314
  0
LINE
  8
101
  6
DOT_CENTER
 62
     1
 10
-14.0
 20
0.000015
 30
0.0
 11
14.0
 21
0.000015
 31
0.0
  0
LINE
  8
101
  6
DOT_CENTER
 62
     1
 10
-6.0
 20
-134.499985
 30
0.0
 11
6.0
 21
-134.499985
 31
0.0
  0
LINE
  8
101
  6
PHANTOM
 62
     1
 10
-26.000002
 20
92.25
 30
0.0
 11
25.999998
 21
92.25
 31
0.0
  0
LINE
  8
101
  6
PHANTOM
 62
     1
 10
-26.000002
 20
-171.25
 30
0.0
 11
25.999998
 21
-171.25
 31
0.0
  0
LINE
  8
101
  6
PHANTOM
 62
     1
 10
25.999998
 20
92.25
 30
0.0
 11
25.999998
 21
-171.25
 31
0.0
  0
LINE
  8
101
  6
PHANTOM
 62
     1
 10
-26.000002
 20
92.25
 30
0.0
 11
-26.000002
 21
-171.25
 31
0.0
  0
ARC
  8
101
  6
PHANTOM
 62
     1
 10
12.499998
 20
5.09902
 30
0.0
 40
1.0
 50
180.0
 51
202.191607
  0
ARC
  8
101
  6
PHANTOM
 62
     1
 10
-0.000002
 20
-134.5
 30
0.0
 40
4.5
 50
215.795368
 51
234.204632
  0
CIRCLE
  8
101
  6
PHANTOM
 62
     1
 10
-0.000002
 20
-134.5
 30
0.0
 40
5.0
  0
CIRCLE
  8
101
  6
PHANTOM
 62
     1
 10
-0.000002
 20
-134.5
 30
0.0
 40
4.711757
  0
CIRCLE
  8
101
  6
PHANTOM
 62
     1
 10
-0.000002
 20
-134.5
 30
0.0
 40
4.75
  0
LINE
  8
101
  6
PHANTOM
 62
     1
 10
-2.632016
 20
-130.85
 30
0.0
 11
2.632013
 21
-130.85
 31
0.0
  0
ARC
  8
101
  6
PHANTOM
 62
     1
 10
-0.000002
 20
-134.5
 30
0.0
 40
4.5
 50
35.795368
 51
54.204632
  0
LINE
  8
101
  6
PHANTOM
 62
     1
 10
3.649998
 20
-137.132014
 30
0.0
 11
3.649998
 21
-131.867986
 31
0.0
  0
ARC
  8
101
  6
PHANTOM
 62
     1
 10
-0.000002
 20
-134.5
 30
0.0
 40
4.5
 50
305.795368
 51
324.204632
  0
LINE
  8
101
  6
PHANTOM
 62
     1
 10
-2.632016
 20
-138.15
 30
0.0
 11
2.632013
 21
-138.15
 31
0.0
  0
LINE
  8
101
  6
PHANTOM
 62
     1
 10
-3.650002
 20
-137.132014
 30
0.0
 11
-3.650002
 21
-131.867986
 31
0.0
  0
ARC
  8
101
  6
PHANTOM
 62
     1
 10
-0.000002
 20
-134.5
 30
0.0
 40
4.5
 50
125.795368
 51
144.204632
  0
ARC
  8
101
  6
PHANTOM
 62
     1
 10
-0.000002
 20
-134.5
 30
0.0
 40
4.347056
 50
57.103038
 51
122.896962
  0
ARC
  8
101
  6
PHANTOM
 62
     1
 10
-0.000002
 20
-134.5
 30
0.0
 40
4.347056
 50
237.103038
 51
302.896962
  0
ARC
  8
101
  6
PHANTOM
 62
     1
 10
-0.000002
 20
-134.5
 30
0.0
 40
4.347056
 50
147.103038
 51
212.896962
  0
CIRCLE
  8
101
  6
CONTINUOUS
 62
     7
 10
-0.000002
 20
0.0
 30
0.0
 40
9.0
  0
CIRCLE
  8
101
  6
CONTINUOUS
 62
     7
 10
-0.000002
 20
0.0
 30
0.0
 40
12.25
  0
LINE
  8
101
  6
PHANTOM
 62
     1
 10
26.579997
 20
-172.0
 30
0.0
 11
26.579997
 21
93.0
 31
0.0
  0
LINE
  8
101
  6
PHANTOM
 62
     1
 10
-26.580001
 20
-172.0
 30
0.0
 11
-26.580001
 21
93.0
 31
0.0
  0
LINE
  8
101
  6
CONTINUOUS
 62
     7
 10
-5.250002
 20
-91.902255
 30
0.0
 11
-5.250002
 21
-79.0
 31
0.0
  0
LINE
  8
101
  6
CONTINUOUS
 62
     7
 10
5.249998
 20
-91.799497
 30
0.0
 11
5.249998
 21
-78.999997
 31
0.0
  0
LINE
  8
101
  6
CONTINUOUS
 62
     7
 10
27.499998
 20
-172.0
 30
0.0
 11
27.499998
 21
93.0
 31
0.0
  0
LINE
  8
101
  6
CONTINUOUS
 62
     7
 10
-27.500002
 20
-172.0
 30
0.0
 11
-27.500002
 21
93.0
 31
0.0
  0
POLYLINE
  8
101
  6
PHANTOM
 62
     1
 66
     1
 10
0.0
 20
0.0
 30
0.0
  0
VERTEX
  8
101
  6
PHANTOM
 62
     1
 10
244.674992
 20
-21.5
 30
0.0
  0
VERTEX
  8
101
  6
PHANTOM
 62
     1
 10
244.683707
 20
-21.728038
 30
0.0
  0
VERTEX
  8
101
  6
PHANTOM
 62
     1
 10
244.708964
 20
-21.955372
 30
0.0
  0
VERTEX
  8
101
  6
PHANTOM
 62
     1
 10
244.749434
 20
-22.181028
 30
0.0
  0
VERTEX
  8
101
  6
PHANTOM
 62
     1
 10
244.803783
 20
-22.40403
 30
0.0
  0
VERTEX
  8
101
  6
PHANTOM
 62
     1
 10
244.870681
 20
-22.623405
 30
0.0
  0
VERTEX
  8
101
  6
PHANTOM
 62
     1
 10
245.037458
 20
-23.050392
 30
0.0
  0
VERTEX
  8
101
  6
PHANTOM
 62
     1
 10
245.349963
 20
-23.661974
 30
0.0
  0
VERTEX
  8
101
  6
PHANTOM
 62
     1
 10
245.969409
 20
-24.625
 30
0.0
  0
SEQEND
  8
0
  0
POLYLINE
  8
101
  6
PHANTOM
 62
     1
 66
     1
 10
0.0
 20
0.0
 30
0.0
  0
VERTEX
  8
101
  6
PHANTOM
 62
     1
 10
244.674992
 20
-21.5
 30
0.0
  0
VERTEX
  8
101
  6
PHANTOM
 62
     1
 10
244.683707
 20
-21.271963
 30
0.0
  0
VERTEX
  8
101
  6
PHANTOM
 62
     1
 10
244.708965
 20
-21.044628
 30
0.0
  0
VERTEX
  8
101
  6
PHANTOM
 62
     1
 10
244.749434
 20
-20.818973
 30
0.0
  0
VERTEX
  8
101
  6
PHANTOM
 62
     1
 10
244.803783
 20
-20.59597
 30
0.0
  0
VERTEX
  8
101
  6
PHANTOM
 62
     1
 10
244.870681
 20
-20.376596
 30
0.0
  0
VERTEX
  8
101
  6
PHANTOM
 62
     1
 10
245.037458
 20
-19.949609
 30
0.0
  0
VERTEX
  8
101
  6
PHANTOM
 62
     1
 10
245.349963
 20
-19.338027
 30
0.0
  0
VERTEX
  8
101
  6
PHANTOM
 62
     1
 10
245.969409
 20
-18.375
 30
0.0
  0
SEQEND
  8
0
  0
POLYLINE
  8
101
  6
PHANTOM
 62
     1
 66
     1
 10
0.0
 20
0.0
 30
0.0
  0
VERTEX
  8
101
  6
PHANTOM
 62
     1
 10
244.675001
 20
-18.375
 30
0.0
  0
VERTEX
  8
101
  6
PHANTOM
 62
     1
 10
244.684624
 20
-18.375
 30
0.0
  0
VERTEX
  8
101
  6
PHANTOM
 62
     1
 10
244.713026
 20
-18.375
 30
0.0
  0
VERTEX
  8
101
  6
PHANTOM
 62
     1
 10
244.821338
 20
-18.375
 30
0.0
  0
VERTEX
  8
101
  6
PHANTOM
 62
     1
 10
244.986295
 20
-18.375
 30
0.0
  0
VERTEX
  8
101
  6
PHANTOM
 62
     1
 10
245.193969
 20
-18.375
 30
0.0
  0
VERTEX
  8
101
  6
PHANTOM
 62
     1
 10
245.43218
 20
-18.375
 30
0.0
  0
VERTEX
  8
101
  6
PHANTOM
 62
     1
 10
245.692633
 20
-18.375
 30
0.0
  0
VERTEX
  8
101
  6
PHANTOM
 62
     1
 10
245.969409
 20
-18.375
 30
0.0
  0
SEQEND
  8
0
  0
POLYLINE
  8
101
  6
PHANTOM
 62
     1
 66
     1
 10
0.0
 20
0.0
 30
0.0
  0
VERTEX
  8
101
  6
PHANTOM
 62
     1
 10
244.675001
 20
-24.625
 30
0.0
  0
VERTEX
  8
101
  6
PHANTOM
 62
     1
 10
244.684624
 20
-24.625
 30
0.0
  0
VERTEX
  8
101
  6
PHANTOM
 62
     1
 10
244.713026
 20
-24.625
 30
0.0
  0
VERTEX
  8
101
  6
PHANTOM
 62
     1
 10
244.821338
 20
-24.625
 30
0.0
  0
VERTEX
  8
101
  6
PHANTOM
 62
     1
 10
244.986295
 20
-24.625
 30
0.0
  0
VERTEX
  8
101
  6
PHANTOM
 62
     1
 10
245.193968
 20
-24.625
 30
0.0
  0
VERTEX
  8
101
  6
PHANTOM
 62
     1
 10
245.43218
 20
-24.625
 30
0.0
  0
VERTEX
  8
101
  6
PHANTOM
 62
     1
 10
245.692632
 20
-24.625
 30
0.0
  0
VERTEX
  8
101
  6
PHANTOM
 62
     1
 10
245.969409
 20
-24.625
 30
0.0
  0
SEQEND
  8
0
  0
LINE
  8
101
  6
PHANTOM
 62
     1
 10
248.099991
 20
-26.25
 30
0.0
 11
246.299991
 21
-26.25
 31
0.0
  0
LINE
  8
101
  6
PHANTOM
 62
     1
 10
248.099992
 20
-16.75
 30
0.0
 11
246.299992
 21
-16.75
 31
0.0
  0
LINE
  8
101
  6
PHANTOM
 62
     1
 10
246.299992
 20
-16.75
 30
0.0
 11
244.674992
 21
-18.375
 31
0.0
  0
LINE
  8
101
  6
PHANTOM
 62
     1
 10
246.299991
 20
-26.25
 30
0.0
 11
244.674992
 21
-24.625
 31
0.0
  0
LINE
  8
101
  6
PHANTOM
 62
     1
 10
248.099991
 20
-26.25
 30
0.0
 11
248.099992
 21
-16.75
 31
0.0
  0
LINE
  8
101
  6
PHANTOM
 62
     1
 10
246.299991
 20
-26.25
 30
0.0
 11
246.299992
 21
-16.75
 31
0.0
  0
LINE
  8
101
  6
CONTINUOUS
 62
     1
 10
245.969414
 20
-18.375
 30
0.0
 11
241.099992
 21
-24.625
 31
0.0
  0
LINE
  8
101
  6
CONTINUOUS
 62
     1
 10
241.099992
 20
-18.375
 30
0.0
 11
245.969409
 21
-24.625
 31
0.0
  0
POLYLINE
  8
101
  6
PHANTOM
 62
     1
 66
     1
 10
0.0
 20
0.0
 30
0.0
  0
VERTEX
  8
101
  6
PHANTOM
 62
     1
 10
244.674992
 20
75.5
 30
0.0
  0
VERTEX
  8
101
  6
PHANTOM
 62
     1
 10
244.683707
 20
75.271962
 30
0.0
  0
VERTEX
  8
101
  6
PHANTOM
 62
     1
 10
244.708964
 20
75.044628
 30
0.0
  0
VERTEX
  8
101
  6
PHANTOM
 62
     1
 10
244.749434
 20
74.818972
 30
0.0
  0
VERTEX
  8
101
  6
PHANTOM
 62
     1
 10
244.803783
 20
74.59597
 30
0.0
  0
VERTEX
  8
101
  6
PHANTOM
 62
     1
 10
244.870681
 20
74.376595
 30
0.0
  0
VERTEX
  8
101
  6
PHANTOM
 62
     1
 10
245.037458
 20
73.949608
 30
0.0
  0
VERTEX
  8
101
  6
PHANTOM
 62
     1
 10
245.349963
 20
73.338026
 30
0.0
  0
VERTEX
  8
101
  6
PHANTOM
 62
     1
 10
245.969409
 20
72.375
 30
0.0
  0
SEQEND
  8
0
  0
POLYLINE
  8
101
  6
PHANTOM
 62
     1
 66
     1
 10
0.0
 20
0.0
 30
0.0
  0
VERTEX
  8
101
  6
PHANTOM
 62
     1
 10
244.674992
 20
75.5
 30
0.0
  0
VERTEX
  8
101
  6
PHANTOM
 62
     1
 10
244.683707
 20
75.728037
 30
0.0
  0
VERTEX
  8
101
  6
PHANTOM
 62
     1
 10
244.708965
 20
75.955372
 30
0.0
  0
VERTEX
  8
101
  6
PHANTOM
 62
     1
 10
244.749434
 20
76.181027
 30
0.0
  0
VERTEX
  8
101
  6
PHANTOM
 62
     1
 10
244.803783
 20
76.40403
 30
0.0
  0
VERTEX
  8
101
  6
PHANTOM
 62
     1
 10
244.870681
 20
76.623404
 30
0.0
  0
VERTEX
  8
101
  6
PHANTOM
 62
     1
 10
245.037458
 20
77.050391
 30
0.0
  0
VERTEX
  8
101
  6
PHANTOM
 62
     1
 10
245.349963
 20
77.661973
 30
0.0
  0
VERTEX
  8
101
  6
PHANTOM
 62
     1
 10
245.969409
 20
78.625
 30
0.0
  0
SEQEND
  8
0
  0
POLYLINE
  8
101
  6
PHANTOM
 62
     1
 66
     1
 10
0.0
 20
0.0
 30
0.0
  0
VERTEX
  8
101
  6
PHANTOM
 62
     1
 10
244.675001
 20
78.625
 30
0.0
  0
VERTEX
  8
101
  6
PHANTOM
 62
     1
 10
244.684624
 20
78.625
 30
0.0
  0
VERTEX
  8
101
  6
PHANTOM
 62
     1
 10
244.713026
 20
78.625
 30
0.0
  0
VERTEX
  8
101
  6
PHANTOM
 62
     1
 10
244.821338
 20
78.625
 30
0.0
  0
VERTEX
  8
101
  6
PHANTOM
 62
     1
 10
244.986295
 20
78.625
 30
0.0
  0
VERTEX
  8
101
  6
PHANTOM
 62
     1
 10
245.193969
 20
78.625
 30
0.0
  0
VERTEX
  8
101
  6
PHANTOM
 62
     1
 10
245.43218
 20
78.625
 30
0.0
  0
VERTEX
  8
101
  6
PHANTOM
 62
     1
 10
245.692633
 20
78.625
 30
0.0
  0
VERTEX
  8
101
  6
PHANTOM
 62
     1
 10
245.969409
 20
78.625
 30
0.0
  0
SEQEND
  8
0
  0
POLYLINE
  8
101
  6
PHANTOM
 62
     1
 66
     1
 10
0.0
 20
0.0
 30
0.0
  0
VERTEX
  8
101
  6
PHANTOM
 62
     1
 10
244.675001
 20
72.375
 30
0.0
  0
VERTEX
  8
101
  6
PHANTOM
 62
     1
 10
244.684624
 20
72.375
 30
0.0
  0
VERTEX
  8
101
  6
PHANTOM
 62
     1
 10
244.713026
 20
72.375
 30
0.0
  0
VERTEX
  8
101
  6
PHANTOM
 62
     1
 10
244.821338
 20
72.375
 30
0.0
  0
VERTEX
  8
101
  6
PHANTOM
 62
     1
 10
244.986295
 20
72.375
 30
0.0
  0
VERTEX
  8
101
  6
PHANTOM
 62
     1
 10
245.193968
 20
72.375
 30
0.0
  0
VERTEX
  8
101
  6
PHANTOM
 62
     1
 10
245.43218
 20
72.375
 30
0.0
  0
VERTEX
  8
101
  6
PHANTOM
 62
     1
 10
245.692632
 20
72.375
 30
0.0
  0
VERTEX
  8
101
  6
PHANTOM
 62
     1
 10
245.969409
 20
72.375
 30
0.0
  0
SEQEND
  8
0
  0
LINE
  8
101
  6
PHANTOM
 62
     1
 10
248.099991
 20
70.75
 30
0.0
 11
246.299991
 21
70.75
 31
0.0
  0
LINE
  8
101
  6
PHANTOM
 62
     1
 10
248.099992
 20
80.25
 30
0.0
 11
246.299992
 21
80.25
 31
0.0
  0
LINE
  8
101
  6
PHANTOM
 62
     1
 10
246.299992
 20
80.25
 30
0.0
 11
244.674992
 21
78.625
 31
0.0
  0
LINE
  8
101
  6
PHANTOM
 62
     1
 10
246.299991
 20
70.75
 30
0.0
 11
244.674992
 21
72.375
 31
0.0
  0
LINE
  8
101
  6
PHANTOM
 62
     1
 10
248.099991
 20
70.75
 30
0.0
 11
248.099992
 21
80.25
 31
0.0
  0
LINE
  8
101
  6
PHANTOM
 62
     1
 10
246.299991
 20
70.75
 30
0.0
 11
246.299992
 21
80.25
 31
0.0
  0
LINE
  8
101
  6
CONTINUOUS
 62
     1
 10
245.969414
 20
78.625
 30
0.0
 11
241.099992
 21
72.375
 31
0.0
  0
LINE
  8
101
  6
CONTINUOUS
 62
     1
 10
241.099992
 20
78.625
 30
0.0
 11
245.969409
 21
72.375
 31
0.0
  0
LINE
  8
101
  6
DOT_CENTER
 62
     1
 10
-0.000002
 20
95.0
 30
0.0
 11
-0.000002
 21
-173.0
 31
0.0
  0
LINE
  8
101
  6
DOT_CENTER
 62
     1
 10
-6.0
 20
-21.499985
 30
0.0
 11
6.0
 21
-21.499985
 31
0.0
  0
ARC
  8
101
  6
PHANTOM
 62
     1
 10
-0.000002
 20
-21.5
 30
0.0
 40
4.5
 50
215.795368
 51
234.204632
  0
CIRCLE
  8
101
  6
PHANTOM
 62
     1
 10
-0.000002
 20
-21.5
 30
0.0
 40
5.0
  0
CIRCLE
  8
101
  6
PHANTOM
 62
     1
 10
-0.000002
 20
-21.5
 30
0.0
 40
4.711757
  0
CIRCLE
  8
101
  6
PHANTOM
 62
     1
 10
-0.000002
 20
-21.5
 30
0.0
 40
4.75
  0
LINE
  8
101
  6
PHANTOM
 62
     1
 10
-2.632016
 20
-17.85
 30
0.0
 11
2.632013
 21
-17.85
 31
0.0
  0
ARC
  8
101
  6
PHANTOM
 62
     1
 10
-0.000002
 20
-21.5
 30
0.0
 40
4.5
 50
35.795368
 51
54.204632
  0
LINE
  8
101
  6
PHANTOM
 62
     1
 10
3.649998
 20
-24.132014
 30
0.0
 11
3.649998
 21
-18.867986
 31
0.0
  0
ARC
  8
101
  6
PHANTOM
 62
     1
 10
-0.000002
 20
-21.5
 30
0.0
 40
4.5
 50
305.795368
 51
324.204632
  0
LINE
  8
101
  6
PHANTOM
 62
     1
 10
-2.632016
 20
-25.15
 30
0.0
 11
2.632013
 21
-25.15
 31
0.0
  0
LINE
  8
101
  6
PHANTOM
 62
     1
 10
-3.650002
 20
-24.132014
 30
0.0
 11
-3.650002
 21
-18.867986
 31
0.0
  0
ARC
  8
101
  6
PHANTOM
 62
     1
 10
-0.000002
 20
-21.5
 30
0.0
 40
4.5
 50
125.795368
 51
144.204632
  0
ARC
  8
101
  6
PHANTOM
 62
     1
 10
-0.000002
 20
-21.5
 30
0.0
 40
4.347056
 50
57.103038
 51
122.896962
  0
ARC
  8
101
  6
PHANTOM
 62
     1
 10
-0.000002
 20
-21.5
 30
0.0
 40
4.347056
 50
237.103038
 51
302.896962
  0
ARC
  8
101
  6
PHANTOM
 62
     1
 10
-0.000002
 20
-21.5
 30
0.0
 40
4.347056
 50
147.103038
 51
212.896962
  0
LINE
  8
101
  6
DOT_CENTER
 62
     1
 10
-6.0
 20
75.500015
 30
0.0
 11
6.0
 21
75.500015
 31
0.0
  0
ARC
  8
101
  6
PHANTOM
 62
     1
 10
-0.000002
 20
75.5
 30
0.0
 40
4.5
 50
215.795368
 51
234.204632
  0
CIRCLE
  8
101
  6
PHANTOM
 62
     1
 10
-0.000002
 20
75.5
 30
0.0
 40
5.0
  0
CIRCLE
  8
101
  6
PHANTOM
 62
     1
 10
-0.000002
 20
75.5
 30
0.0
 40
4.711757
  0
CIRCLE
  8
101
  6
PHANTOM
 62
     1
 10
-0.000002
 20
75.5
 30
0.0
 40
4.75
  0
LINE
  8
101
  6
PHANTOM
 62
     1
 10
-2.632016
 20
79.15
 30
0.0
 11
2.632013
 21
79.15
 31
0.0
  0
ARC
  8
101
  6
PHANTOM
 62
     1
 10
-0.000002
 20
75.5
 30
0.0
 40
4.5
 50
35.795368
 51
54.204632
  0
LINE
  8
101
  6
PHANTOM
 62
     1
 10
3.649998
 20
72.867986
 30
0.0
 11
3.649998
 21
78.132014
 31
0.0
  0
ARC
  8
101
  6
PHANTOM
 62
     1
 10
-0.000002
 20
75.5
 30
0.0
 40
4.5
 50
305.795368
 51
324.204632
  0
LINE
  8
101
  6
PHANTOM
 62
     1
 10
-2.632016
 20
71.85
 30
0.0
 11
2.632013
 21
71.85
 31
0.0
  0
LINE
  8
101
  6
PHANTOM
 62
     1
 10
-3.650002
 20
72.867986
 30
0.0
 11
-3.650002
 21
78.132014
 31
0.0
  0
ARC
  8
101
  6
PHANTOM
 62
     1
 10
-0.000002
 20
75.5
 30
0.0
 40
4.5
 50
125.795368
 51
144.204632
  0
ARC
  8
101
  6
PHANTOM
 62
     1
 10
-0.000002
 20
75.5
 30
0.0
 40
4.347056
 50
57.103038
 51
122.896962
  0
ARC
  8
101
  6
PHANTOM
 62
     1
 10
-0.000002
 20
75.5
 30
0.0
 40
4.347056
 50
237.103038
 51
302.896962
  0
ARC
  8
101
  6
PHANTOM
 62
     1
 10
-0.000002
 20
75.5
 30
0.0
 40
4.347056
 50
147.103038
 51
212.896962
  0
LINE
  8
101
  6
PHANTOM
 62
     1
 10
251.699991
 20
-63.25
 30
0.0
 11
242.199992
 21
-63.25
 31
0.0
  0
LINE
  8
101
  6
PHANTOM
 62
     1
 10
251.577966
 20
-79.0
 30
0.0
 11
242.199992
 21
-79.0
 31
0.0
  0
LINE
  8
101
  6
PHANTOM
 62
     1
 10
251.699989
 20
-97.05
 30
0.0
 11
242.199992
 21
-97.05
 31
0.0
  0
LINE
  8
101
  6
DOT_CENTER
 62
     1
 10
-9.999994
 20
-71.999997
 30
0.0
 11
10.000006
 21
-71.999997
 31
0.0
  0
LINE
  8
101
  6
DOT_CENTER
 62
     1
 10
240.075842
 20
-71.999997
 30
0.0
 11
254.075842
 21
-71.999997
 31
0.0
  0
LINE
  8
101
  6
DOT_CENTER
 62
     1
 10
-6.000505
 20
-91.799497
 30
0.0
 11
5.999495
 21
-91.799497
 31
0.0
  0
LINE
  8
101
  6
DOT_CENTER
 62
     1
 10
240.075331
 20
-91.799497
 30
0.0
 11
254.075331
 21
-91.799497
 31
0.0
  0
ARC
  8
101
  6
CONTINUOUS
 62
     7
 10
-0.000505
 20
-91.799497
 30
0.0
 40
5.250503
 50
181.121414
 51
0.0
  0
ARC
  8
101
  6
CONTINUOUS
 62
     7
 10
-0.0005
 20
-0.000498
 30
0.0
 40
12.500498
 50
270.000675
 51
180.001829
  0
ARC
  8
101
  6
CONTINUOUS
 62
     7
 10
-0.000004
 20
-71.999999
 30
0.0
 40
8.749999
 50
306.869919
 51
233.130117
  0
CIRCLE
  8
101
  6
PHANTOM
 62
     1
 10
-0.000003
 20
-134.5
 30
0.0
 40
3.125
  0
CIRCLE
  8
101
  6
PHANTOM
 62
     1
 10
-0.000003
 20
-21.5
 30
0.0
 40
3.125
  0
CIRCLE
  8
101
  6
PHANTOM
 62
     1
 10
-0.000003
 20
75.5
 30
0.0
 40
3.125
  0
ARC
  8
101
  6
PHANTOM
 62
     1
 10
-0.000002
 20
-134.5
 30
0.0
 40
4.347056
 50
327.103038
 51
32.896962
  0
ARC
  8
101
  6
PHANTOM
 62
     1
 10
-0.000002
 20
-21.5
 30
0.0
 40
4.347056
 50
327.103038
 51
32.896962
  0
ARC
  8
101
  6
PHANTOM
 62
     1
 10
-0.000002
 20
75.5
 30
0.0
 40
4.347056
 50
327.103038
 51
32.896962
  0
LINE
  8
101
  6
CONTINUOUS
 62
     7
 10
251.699991
 20
-172.0
 30
0.0
 11
245.43294
 21
-172.0
 31
0.0
  0
LINE
  8
101
  6
CONTINUOUS
 62
     7
 10
27.499998
 20
-172.0
 30
0.0
 11
-27.500002
 21
-172.0
 31
0.0
  0
LINE
  8
101
  6
CONTINUOUS
 62
     7
 10
251.699991
 20
93.0
 30
0.0
 11
245.43294
 21
93.0
 31
0.0
  0
LINE
  8
101
  6
CONTINUOUS
 62
     7
 10
27.499998
 20
93.0
 30
0.0
 11
-27.500002
 21
93.0
 31
0.0
  0
LINE
  8
101
  6
PHANTOM
 62
     1
 10
-3.125003
 20
-137.624996
 30
0.0
 11
3.124997
 21
-137.624997
 31
0.0
  0
LINE
  8
101
  6
PHANTOM
 62
     1
 10
236.799991
 20
-137.625
 30
0.0
 11
244.674992
 21
-137.625
 31
0.0
  0
LINE
  8
101
  6
PHANTOM
 62
     1
 10
-3.125003
 20
-131.374996
 30
0.0
 11
3.124997
 21
-131.374997
 31
0.0
  0
LINE
  8
101
  6
PHANTOM
 62
     1
 10
236.799992
 20
-131.375
 30
0.0
 11
244.674992
 21
-131.375
 31
0.0
  0
LINE
  8
101
  6
PHANTOM
 62
     1
 10
-3.125003
 20
-24.624996
 30
0.0
 11
3.124997
 21
-24.624997
 31
0.0
  0
LINE
  8
101
  6
PHANTOM
 62
     1
 10
236.799991
 20
-24.625
 30
0.0
 11
244.674992
 21
-24.625
 31
0.0
  0
LINE
  8
101
  6
PHANTOM
 62
     1
 10
244.674992
 20
-18.375
 30
0.0
 11
236.799992
 21
-18.375
 31
0.0
  0
LINE
  8
101
  6
PHANTOM
 62
     1
 10
3.124997
 20
-18.374997
 30
0.0
 11
-3.125003
 21
-18.374996
 31
0.0
  0
LINE
  8
101
  6
PHANTOM
 62
     1
 10
244.674992
 20
72.375
 30
0.0
 11
236.799991
 21
72.375
 31
0.0
  0
LINE
  8
101
  6
PHANTOM
 62
     1
 10
3.124997
 20
72.375003
 30
0.0
 11
-3.125003
 21
72.375004
 31
0.0
  0
LINE
  8
101
  6
PHANTOM
 62
     1
 10
244.674992
 20
78.625
 30
0.0
 11
236.799992
 21
78.625
 31
0.0
  0
LINE
  8
101
  6
PHANTOM
 62
     1
 10
3.124997
 20
78.625003
 30
0.0
 11
-3.125003
 21
78.625004
 31
0.0
  0
LINE
  8
101
  6
PHANTOM
 62
     1
 10
249.999993
 20
-9.999983
 30
0.0
 11
249.999994
 21
10.000017
 31
0.0
  0
LINE
  8
101
  6
PHANTOM
 62
     1
 10
241.099992
 20
-131.375
 30
0.0
 11
241.099992
 21
-137.625
 31
0.0
  0
LINE
  8
101
  6
PHANTOM
 62
     1
 10
241.099992
 20
-18.375
 30
0.0
 11
241.099992
 21
-24.625
 31
0.0
  0
LINE
  8
101
  6
PHANTOM
 62
     1
 10
241.099992
 20
78.625
 30
0.0
 11
241.099992
 21
72.375
 31
0.0
  0
LINE
  8
101
  6
PHANTOM
 62
     1
 10
-3.125003
 20
-137.625
 30
0.0
 11
-3.125003
 21
-131.375
 31
0.0
  0
LINE
  8
101
  6
PHANTOM
 62
     1
 10
-3.125003
 20
-24.625
 30
0.0
 11
-3.125003
 21
-18.375
 31
0.0
  0
LINE
  8
101
  6
PHANTOM
 62
     1
 10
-3.125003
 20
72.375
 30
0.0
 11
-3.125003
 21
78.625
 31
0.0
  0
LINE
  8
101
  6
PHANTOM
 62
     1
 10
3.124997
 20
78.625
 30
0.0
 11
3.124997
 21
72.375
 31
0.0
  0
LINE
  8
101
  6
PHANTOM
 62
     1
 10
3.124997
 20
-18.375
 30
0.0
 11
3.124997
 21
-24.625
 31
0.0
  0
LINE
  8
101
  6
PHANTOM
 62
     1
 10
3.124997
 20
-131.375
 30
0.0
 11
3.124997
 21
-137.625
 31
0.0
  0
LINE
  8
101
  6
PHANTOM
 62
     1
 10
251.699994
 20
-12.499982
 30
0.0
 11
248.699994
 21
-12.499982
 31
0.0
  0
LINE
  8
101
  6
PHANTOM
 62
     1
 10
8.999994
 20
-248.999984
 30
0.0
 11
8.999994
 21
-242.299984
 31
0.0
  0
ARC
  8
101
  6
PHANTOM
 62
     1
 10
10.000006
 20
-248.999973
 30
0.0
 40
1.000012
 50
180.000682
 51
269.999313
  0
LINE
  8
101
  6
PHANTOM
 62
     1
 10
12.249994
 20
-246.199985
 30
0.0
 11
12.249994
 21
-248.999985
 31
0.0
  0
ARC
  8
101
  6
PHANTOM
 62
     1
 10
11.249982
 20
-248.999973
 30
0.0
 40
1.000012
 50
270.000682
 51
359.999313
  0
LINE
  8
101
  6
PHANTOM
 62
     1
 10
12.499994
 20
-251.006485
 30
0.0
 11
12.499994
 21
-248.699985
 31
0.0
  0
ARC
  8
101
  6
PHANTOM
 62
     1
 10
-10.000018
 20
-248.999972
 30
0.0
 40
1.000012
 50
270.000682
 51
359.999313
  0
ARC
  8
101
  6
PHANTOM
 62
     1
 10
-11.249994
 20
-248.999972
 30
0.0
 40
1.000012
 50
180.000682
 51
269.999313
  0
LINE
  8
101
  6
PHANTOM
 62
     1
 10
-12.500005
 20
-251.006484
 30
0.0
 11
-12.500005
 21
-248.699985
 31
0.0
  0
LINE
  8
101
  6
PHANTOM
 62
     1
 10
-9.000006
 20
-248.999984
 30
0.0
 11
-9.000006
 21
-242.299984
 31
0.0
  0
LINE
  8
101
  6
PHANTOM
 62
     1
 10
-12.250006
 20
-246.199984
 30
0.0
 11
-12.250006
 21
-248.999984
 31
0.0
  0
POLYLINE
  8
101
  6
PHANTOM
 62
     1
 66
     1
 10
0.0
 20
0.0
 30
0.0
  0
VERTEX
  8
101
  6
PHANTOM
 62
     1
 10
0.0
 20
-244.674982
 30
0.0
  0
VERTEX
  8
101
  6
PHANTOM
 62
     1
 10
-0.228038
 20
-244.683697
 30
0.0
  0
VERTEX
  8
101
  6
PHANTOM
 62
     1
 10
-0.455372
 20
-244.708955
 30
0.0
  0
VERTEX
  8
101
  6
PHANTOM
 62
     1
 10
-0.681028
 20
-244.749424
 30
0.0
  0
VERTEX
  8
101
  6
PHANTOM
 62
     1
 10
-0.90403
 20
-244.803773
 30
0.0
  0
VERTEX
  8
101
  6
PHANTOM
 62
     1
 10
-1.123405
 20
-244.870671
 30
0.0
  0
VERTEX
  8
101
  6
PHANTOM
 62
     1
 10
-1.550392
 20
-245.037448
 30
0.0
  0
VERTEX
  8
101
  6
PHANTOM
 62
     1
 10
-2.161974
 20
-245.349953
 30
0.0
  0
VERTEX
  8
101
  6
PHANTOM
 62
     1
 10
-3.125
 20
-245.969399
 30
0.0
  0
SEQEND
  8
0
  0
POLYLINE
  8
101
  6
PHANTOM
 62
     1
 66
     1
 10
0.0
 20
0.0
 30
0.0
  0
VERTEX
  8
101
  6
PHANTOM
 62
     1
 10
0.0
 20
-244.674982
 30
0.0
  0
VERTEX
  8
101
  6
PHANTOM
 62
     1
 10
0.228037
 20
-244.683697
 30
0.0
  0
VERTEX
  8
101
  6
PHANTOM
 62
     1
 10
0.455372
 20
-244.708955
 30
0.0
  0
VERTEX
  8
101
  6
PHANTOM
 62
     1
 10
0.681027
 20
-244.749424
 30
0.0
  0
VERTEX
  8
101
  6
PHANTOM
 62
     1
 10
0.90403
 20
-244.803773
 30
0.0
  0
VERTEX
  8
101
  6
PHANTOM
 62
     1
 10
1.123404
 20
-244.870671
 30
0.0
  0
VERTEX
  8
101
  6
PHANTOM
 62
     1
 10
1.550391
 20
-245.037448
 30
0.0
  0
VERTEX
  8
101
  6
PHANTOM
 62
     1
 10
2.161973
 20
-245.349954
 30
0.0
  0
VERTEX
  8
101
  6
PHANTOM
 62
     1
 10
3.125
 20
-245.969399
 30
0.0
  0
SEQEND
  8
0
  0
POLYLINE
  8
101
  6
PHANTOM
 62
     1
 66
     1
 10
0.0
 20
0.0
 30
0.0
  0
VERTEX
  8
101
  6
PHANTOM
 62
     1
 10
3.125
 20
-244.674991
 30
0.0
  0
VERTEX
  8
101
  6
PHANTOM
 62
     1
 10
3.125
 20
-244.684615
 30
0.0
  0
VERTEX
  8
101
  6
PHANTOM
 62
     1
 10
3.125
 20
-244.713017
 30
0.0
  0
VERTEX
  8
101
  6
PHANTOM
 62
     1
 10
3.125
 20
-244.821328
 30
0.0
  0
VERTEX
  8
101
  6
PHANTOM
 62
     1
 10
3.125
 20
-244.986285
 30
0.0
  0
VERTEX
  8
101
  6
PHANTOM
 62
     1
 10
3.125
 20
-245.193959
 30
0.0
  0
VERTEX
  8
101
  6
PHANTOM
 62
     1
 10
3.125
 20
-245.432171
 30
0.0
  0
VERTEX
  8
101
  6
PHANTOM
 62
     1
 10
3.125
 20
-245.692623
 30
0.0
  0
VERTEX
  8
101
  6
PHANTOM
 62
     1
 10
3.125
 20
-245.969399
 30
0.0
  0
SEQEND
  8
0
  0
POLYLINE
  8
101
  6
PHANTOM
 62
     1
 66
     1
 10
0.0
 20
0.0
 30
0.0
  0
VERTEX
  8
101
  6
PHANTOM
 62
     1
 10
-3.125
 20
-244.674991
 30
0.0
  0
VERTEX
  8
101
  6
PHANTOM
 62
     1
 10
-3.125
 20
-244.684614
 30
0.0
  0
VERTEX
  8
101
  6
PHANTOM
 62
     1
 10
-3.125
 20
-244.713016
 30
0.0
  0
VERTEX
  8
101
  6
PHANTOM
 62
     1
 10
-3.125
 20
-244.821328
 30
0.0
  0
VERTEX
  8
101
  6
PHANTOM
 62
     1
 10
-3.125
 20
-244.986285
 30
0.0
  0
VERTEX
  8
101
  6
PHANTOM
 62
     1
 10
-3.125
 20
-245.193959
 30
0.0
  0
VERTEX
  8
101
  6
PHANTOM
 62
     1
 10
-3.125
 20
-245.432171
 30
0.0
  0
VERTEX
  8
101
  6
PHANTOM
 62
     1
 10
-3.125
 20
-245.692623
 30
0.0
  0
VERTEX
  8
101
  6
PHANTOM
 62
     1
 10
-3.125
 20
-245.969399
 30
0.0
  0
SEQEND
  8
0
  0
LINE
  8
101
  6
PHANTOM
 62
     1
 10
-4.75
 20
-248.099982
 30
0.0
 11
-4.75
 21
-246.299982
 31
0.0
  0
LINE
  8
101
  6
PHANTOM
 62
     1
 10
4.75
 20
-248.099982
 30
0.0
 11
4.75
 21
-246.299982
 31
0.0
  0
LINE
  8
101
  6
PHANTOM
 62
     1
 10
4.75
 20
-246.299982
 30
0.0
 11
3.125
 21
-244.674982
 31
0.0
  0
LINE
  8
101
  6
PHANTOM
 62
     1
 10
-4.75
 20
-246.299982
 30
0.0
 11
-3.125
 21
-244.674982
 31
0.0
  0
LINE
  8
101
  6
PHANTOM
 62
     1
 10
-4.75
 20
-248.099982
 30
0.0
 11
4.75
 21
-248.099982
 31
0.0
  0
LINE
  8
101
  6
PHANTOM
 62
     1
 10
-4.75
 20
-246.299982
 30
0.0
 11
4.75
 21
-246.299982
 31
0.0
  0
LINE
  8
101
  6
PHANTOM
 62
     1
 10
3.125
 20
-236.799982
 30
0.0
 11
3.125
 21
-244.674982
 31
0.0
  0
LINE
  8
101
  6
PHANTOM
 62
     1
 10
3.125
 20
-241.099982
 30
0.0
 11
-3.125
 21
-241.099982
 31
0.0
  0
LINE
  8
101
  6
CONTINUOUS
 62
     1
 10
3.125
 20
-241.099982
 30
0.0
 11
-3.125
 21
-245.969399
 31
0.0
  0
LINE
  8
101
  6
CONTINUOUS
 62
     1
 10
3.125
 20
-245.969404
 30
0.0
 11
-3.125
 21
-241.099982
 31
0.0
  0
LINE
  8
101
  6
PHANTOM
 62
     1
 10
-3.125
 20
-236.799982
 30
0.0
 11
-3.125
 21
-244.674982
 31
0.0
  0
LINE
  8
101
  6
PHANTOM
 62
     1
 10
-11.250006
 20
-249.999984
 30
0.0
 11
11.249994
 21
-249.999985
 31
0.0
  0
INSERT
  8
0
  2
_G_T_1
 10
0.0
 20
0.0
 30
0.0
  0
ENDSEC
  0
EOF
