  0
SECTION
  2
HEADER
  9
$ACADVER
  1
AC1006
  9
$DWGCODEPAGE
  3
ansi_1252
  9
$INSBASE
 10
0.0
 20
0.0
 30
0.0
  9
$EXTMIN
 10
0.0
 20
0.0
  9
$EXTMAX
 10
100.0
 20
100.0
  9
$LIMMIN
 10
0.0
 20
0.0
  9
$LIMMAX
 10
100.0
 20
100.0
  9
$VIEWCTR
 10
6.591288
 20
4.579184
  9
$VIEWSIZE
 40
9.158369
  9
$SNAPMODE
 70
     0
  9
$SNAPUNIT
 10
1.0
 20
1.0
  9
$SNAPBASE
 10
0.0
 20
0.0
  9
$SNAPANG
 50
0.0
  9
$SNAPSTYLE
 70
     0
  9
$SNAPISOPAIR
 70
     0
  9
$GRIDMODE
 70
     0
  9
$GRIDUNIT
 10
0.0
 20
0.0
  9
$ORTHOMODE
 70
     0
  9
$REGENMODE
 70
     1
  9
$FILLMODE
 70
     1
  9
$QTEXTMODE
 70
     0
  9
$MIRRTEXT
 70
     1
  9
$DRAGMODE
 70
     2
  9
$LTSCALE
 40
1.0
  9
$OSMODE
 70
     0
  9
$ATTMODE
 70
     1
  9
$TEXTSIZE
 40
0.2
  9
$TRACEWID
 40
0.05
  9
$TEXTSTYLE
  7
STANDARD
  9
$CLAYER
  8
0
  9
$CELTYPE
  6
CONTINUOUS
  9
$CECOLOR
 62
   256
  9
$DIMSCALE
 40
1.0
  9
$DIMASZ
 40
0.18
  9
$DIMEXO
 40
0.0625
  9
$DIMDLI
 40
0.38
  9
$DIMRND
 40
0.0
  9
$DIMDLE
 40
0.0
  9
$DIMEXE
 40
0.18
  9
$DIMTP
 40
0.0
  9
$DIMTM
 40
0.0
  9
$DIMTXT
 40
0.18
  9
$DIMCEN
 40
0.09
  9
$DIMTSZ
 40
0.0
  9
$DIMTOL
 70
     0
  9
$DIMLIM
 70
     0
  9
$DIMTIH
 70
     1
  9
$DIMTOH
 70
     1
  9
$DIMSE1
 70
     0
  9
$DIMSE2
 70
     0
  9
$DIMTAD
 70
     0
  9
$DIMZIN
 70
     0
  9
$DIMBLK
  1

  9
$DIMASO
 70
     1
  9
$DIMSHO
 70
     1
  9
$DIMPOST
  1

  9
$DIMAPOST
  1

  9
$DIMALT
 70
     0
  9
$DIMALTD
 70
     2
  9
$DIMALTF
 40
25.4
  9
$DIMLFAC
 40
1.0
  9
$DIMTOFL
 70
     0
  9
$DIMTVP
 40
0.0
  9
$DIMTIX
 70
     0
  9
$DIMSOXD
 70
     0
  9
$DIMSAH
 70
     0
  9
$DIMBLK1
  1

  9
$DIMBLK2
  1

  9
$LUNITS
 70
     2
  9
$LUPREC
 70
     4
  9
$AXISMODE
 70
     0
  9
$AXISUNIT
 10
0.0
 20
0.0
  9
$SKETCHINC
 40
0.1
  9
$FILLETRAD
 40
0.0
  9
$AUNITS
 70
     0
  9
$AUPREC
 70
     3
  9
$MENU
  1
acad
  9
$ELEVATION
 40
0.0
  9
$THICKNESS
 40
0.0
  9
$LIMCHECK
 70
     0
  9
$BLIPMODE
 70
     1
  9
$CHAMFERA
 40
0.0
  9
$CHAMFERB
 40
0.0
  9
$SKPOLY
 70
     0
  9
$TDCREATE
 40
0.000000000
  9
$TDUPDATE
 40
0.000000000
  9
$TDINDWG
 40
0.0000000000
  9
$TDUSRTIMER
 40
0.0000000000
  9
$USRTIMER
 70
     1
  9
$ANGBASE
 50
0.0
  9
$ANGDIR
 70
     0
  9
$PDMODE
 70
     0
  9
$PDSIZE
 40
0.0
  9
$PLINEWID
 40
0.0
  9
$COORDS
 70
     0
  9
$SPLFRAME
 70
     0
  9
$SPLINETYPE
 70
     6
  9
$SPLINESEGS
 70
     8
  9
$ATTDIA
 70
     0
  9
$ATTREQ
 70
     1
  9
$HANDLING
 70
     0
  9
$HANDSEED
  5
3
  9
$SURFTAB1
 70
     6
  9
$SURFTAB2
 70
     6
  9
$SURFTYPE
 70
     6
  9
$SURFU
 70
     6
  9
$SURFV
 70
     6
  9
$FLATLAND
 70
     0
  9
$UCSNAME
  2

  9
$UCSORG
 10
0.0
 20
0.0
 30
0.0
  9
$UCSXDIR
 10
1.0
 20
0.0
 30
0.0
  9
$UCSYDIR
 10
0.0
 20
1.0
 30
0.0
  9
$USERI1
 70
     0
  9
$USERI2
 70
     0
  9
$USERI3
 70
     0
  9
$USERI4
 70
     0
  9
$USERI5
 70
     0
  9
$USERR1
 40
0.0
  9
$USERR2
 40
0.0
  9
$USERR3
 40
0.0
  9
$USERR4
 40
0.0
  9
$USERR5
 40
0.0
  9
$WORLDVIEW
 70
     1
  0
ENDSEC
  0
SECTION
  2
TABLES
  0
TABLE
  2
VPORT
 70
     1
  0
VPORT
  2
*ACTIVE
 70
     0
 10
0.0
 20
0.0
 11
1.0
 21
1.0
 12
6.591288
 22
4.579184
 13
0.0
 23
0.0
 14
1.0
 24
1.0
 15
0.0
 25
0.0
 16
0.0
 26
0.0
 36
1.0
 17
0.0
 27
0.0
 37
0.0
 40
9.158369
 41
0.688564
 42
50.0
 43
0.0
 44
0.0
 50
0.0
 51
0.0
 71
     0
 72
   100
 73
     1
 74
     1
 75
     0
 76
     0
 77
     0
 78
     0
  0
ENDTAB
  0
TABLE
  2
LTYPE
 70
     3
  0
LTYPE
  2
CONTINUOUS
 70
     0
  3
Solid line
 72
    65
 73
     0
 40
0.0
  0
LTYPE
  2
DOT_CENTER
 70
     0
  3

 72
    65
 73
     0
 40
0.0
  0
LTYPE
  2
PHANTOM
 70
     0
  3

 72
    65
 73
     2
 40
380.999994
 49
304.799995
 49
-76.199999
  0
ENDTAB
  0
TABLE
  2
LAYER
 70
     2
  0
LAYER
  2
0
 70
     0
 62
     1
  6
CONTINUOUS
  0
LAYER
  2
103
 70
     0
 62
     1
  6
CONTINUOUS
  0
ENDTAB
  0
TABLE
  2
STYLE
 70
     1
  0
STYLE
  2
STANDARD
 70
     0
 40
0.0
 41
1.0
 50
0.0
 71
     0
 42
0.2
  3

  4

  0
ENDTAB
  0
TABLE
  2
VIEW
 70
     0
  0
ENDTAB
  0
TABLE
  2
UCS
 70
     0
  0
ENDTAB
  0
ENDSEC
  0
SECTION
  2
BLOCKS
  0
BLOCK
  8
0
  2
_G_T_1
 70
    64
 10
0.0
 20
0.0
  0
TEXT
  8
103
  6
CONTINUOUS
 62
     1
 10
125.0
 20
-176.449997
 30
0.0
 40
5.0
  1
Fenstergriff
 41
1.000004
  0
TEXT
  8
103
  6
CONTINUOUS
 62
     1
 10
125.0
 20
-183.449997
 30
0.0
 40
5.0
  1
34810001
 41
1.000004
  0
ENDBLK
  8
0
  0
ENDSEC
  0
SECTION
  2
ENTITIES
  0
ARC
  8
103
  6
CONTINUOUS
 62
     7
 10
-11.393834
 20
-295.5
 30
0.0
 40
1.0
 50
186.0
 51
270.0
  0
ARC
  8
103
  6
CONTINUOUS
 62
     7
 10
11.378478
 20
-295.5
 30
0.0
 40
1.0
 50
270.0
 51
354.964421
  0
ARC
  8
103
  6
CONTINUOUS
 62
     7
 10
-2.294407
 20
-0.51679
 30
0.0
 40
10.0
 50
180.0
 51
198.857747
  0
ARC
  8
103
  6
CONTINUOUS
 62
     7
 10
2.29407
 20
-0.517567
 30
0.0
 40
10.0
 50
341.140567
 51
0.0
  0
ARC
  8
103
  6
CONTINUOUS
 62
     7
 10
295.5
 20
32.893917
 30
0.0
 40
1.0
 50
0.0
 51
84.0
  0
ARC
  8
103
  6
CONTINUOUS
 62
     7
 10
251.0
 20
37.639388
 30
0.0
 40
1.0
 50
84.099714
 51
180.0
  0
ARC
  8
103
  6
CONTINUOUS
 62
     7
 10
251.0
 20
-37.639388
 30
0.0
 40
1.0
 50
180.0
 51
275.900286
  0
ARC
  8
103
  6
CONTINUOUS
 62
     7
 10
264.0
 20
36.273377
 30
0.0
 40
1.0
 50
0.0
 51
82.5
  0
ARC
  8
103
  6
CONTINUOUS
 62
     7
 10
264.0
 20
-36.273377
 30
0.0
 40
1.0
 50
277.5
 51
360.0
  0
ARC
  8
103
  6
CONTINUOUS
 62
     7
 10
-13.773034
 20
-264.0
 30
0.0
 40
1.0
 50
185.900286
 51
270.0
  0
ARC
  8
103
  6
CONTINUOUS
 62
     7
 10
-15.139389
 20
-251.0
 30
0.0
 40
1.0
 50
90.0
 51
185.900286
  0
ARC
  8
103
  6
CONTINUOUS
 62
     7
 10
15.139389
 20
-251.0
 30
0.0
 40
1.0
 50
354.099714
 51
90.0
  0
ARC
  8
103
  6
CONTINUOUS
 62
     7
 10
13.773034
 20
-264.0
 30
0.0
 40
1.0
 50
270.0
 51
354.099714
  0
ARC
  8
103
  6
CONTINUOUS
 62
     7
 10
-13.889388
 20
-267.0
 30
0.0
 40
1.0
 50
90.0
 51
185.946863
  0
ARC
  8
103
  6
CONTINUOUS
 62
     7
 10
267.0
 20
35.889732
 30
0.0
 40
1.0
 50
82.5
 51
180.0
  0
ARC
  8
103
  6
CONTINUOUS
 62
     7
 10
267.0
 20
-35.889732
 30
0.0
 40
1.0
 50
180.0
 51
277.5
  0
ARC
  8
103
  6
CONTINUOUS
 62
     7
 10
281.5
 20
-45.422522
 30
0.0
 40
10.0
 50
0.0
 51
97.5
  0
ARC
  8
103
  6
CONTINUOUS
 62
     7
 10
281.5
 20
-118.0
 30
0.0
 40
10.0
 50
270.0
 51
0.0
  0
ARC
  8
103
  6
CONTINUOUS
 62
     7
 10
281.5
 20
-118.0
 30
0.0
 40
28.0
 50
270.0
 51
0.0
  0
ARC
  8
103
  6
CONTINUOUS
 62
     7
 10
308.5
 20
-21.82875
 30
0.0
 40
1.0
 50
0.0
 51
50.0
  0
ARC
  8
103
  6
CONTINUOUS
 62
     7
 10
13.889881
 20
-267.0
 30
0.0
 40
1.0
 50
354.0
 51
90.0
  0
POLYLINE
  8
103
  6
CONTINUOUS
 62
     7
 66
     1
 10
0.0
 20
0.0
 30
0.0
  0
VERTEX
  8
103
  6
CONTINUOUS
 62
     7
 10
8.286419
 20
-13.910875
 30
0.0
  0
VERTEX
  8
103
  6
CONTINUOUS
 62
     7
 10
8.000683
 20
-14.696609
 30
0.0
  0
VERTEX
  8
103
  6
CONTINUOUS
 62
     7
 10
7.67392
 20
-15.466188
 30
0.0
  0
VERTEX
  8
103
  6
CONTINUOUS
 62
     7
 10
7.374444
 20
-16.064085
 30
0.0
  0
VERTEX
  8
103
  6
CONTINUOUS
 62
     7
 10
6.862458
 20
-16.927006
 30
0.0
  0
VERTEX
  8
103
  6
CONTINUOUS
 62
     7
 10
6.480978
 20
-17.476767
 30
0.0
  0
VERTEX
  8
103
  6
CONTINUOUS
 62
     7
 10
5.848999
 20
-18.255617
 30
0.0
  0
VERTEX
  8
103
  6
CONTINUOUS
 62
     7
 10
5.267015
 20
-18.855892
 30
0.0
  0
VERTEX
  8
103
  6
CONTINUOUS
 62
     7
 10
4.634671
 20
-19.40282
 30
0.0
  0
VERTEX
  8
103
  6
CONTINUOUS
 62
     7
 10
3.950448
 20
-19.883055
 30
0.0
  0
VERTEX
  8
103
  6
CONTINUOUS
 62
     7
 10
3.220615
 20
-20.290935
 30
0.0
  0
VERTEX
  8
103
  6
CONTINUOUS
 62
     7
 10
2.454879
 20
-20.626139
 30
0.0
  0
VERTEX
  8
103
  6
CONTINUOUS
 62
     7
 10
2.059807
 20
-20.764473
 30
0.0
  0
VERTEX
  8
103
  6
CONTINUOUS
 62
     7
 10
1.657637
 20
-20.880241
 30
0.0
  0
VERTEX
  8
103
  6
CONTINUOUS
 62
     7
 10
1.248966
 20
-20.969607
 30
0.0
  0
VERTEX
  8
103
  6
CONTINUOUS
 62
     7
 10
0.835414
 20
-21.027078
 30
0.0
  0
VERTEX
  8
103
  6
CONTINUOUS
 62
     7
 10
0.0
 20
-21.075519
 30
0.0
  0
SEQEND
  8
0
  0
POLYLINE
  8
103
  6
CONTINUOUS
 62
     7
 66
     1
 10
0.0
 20
0.0
 30
0.0
  0
VERTEX
  8
103
  6
CONTINUOUS
 62
     7
 10
-8.286419
 20
-13.910875
 30
0.0
  0
VERTEX
  8
103
  6
CONTINUOUS
 62
     7
 10
-8.000683
 20
-14.696609
 30
0.0
  0
VERTEX
  8
103
  6
CONTINUOUS
 62
     7
 10
-7.67392
 20
-15.466188
 30
0.0
  0
VERTEX
  8
103
  6
CONTINUOUS
 62
     7
 10
-7.374444
 20
-16.064085
 30
0.0
  0
VERTEX
  8
103
  6
CONTINUOUS
 62
     7
 10
-6.862458
 20
-16.927006
 30
0.0
  0
VERTEX
  8
103
  6
CONTINUOUS
 62
     7
 10
-6.480978
 20
-17.476767
 30
0.0
  0
VERTEX
  8
103
  6
CONTINUOUS
 62
     7
 10
-5.848999
 20
-18.255617
 30
0.0
  0
VERTEX
  8
103
  6
CONTINUOUS
 62
     7
 10
-5.267015
 20
-18.855892
 30
0.0
  0
VERTEX
  8
103
  6
CONTINUOUS
 62
     7
 10
-4.634671
 20
-19.40282
 30
0.0
  0
VERTEX
  8
103
  6
CONTINUOUS
 62
     7
 10
-3.950448
 20
-19.883055
 30
0.0
  0
VERTEX
  8
103
  6
CONTINUOUS
 62
     7
 10
-3.220615
 20
-20.290935
 30
0.0
  0
VERTEX
  8
103
  6
CONTINUOUS
 62
     7
 10
-2.454879
 20
-20.626139
 30
0.0
  0
VERTEX
  8
103
  6
CONTINUOUS
 62
     7
 10
-2.059807
 20
-20.764473
 30
0.0
  0
VERTEX
  8
103
  6
CONTINUOUS
 62
     7
 10
-1.657637
 20
-20.880241
 30
0.0
  0
VERTEX
  8
103
  6
CONTINUOUS
 62
     7
 10
-1.248966
 20
-20.969607
 30
0.0
  0
VERTEX
  8
103
  6
CONTINUOUS
 62
     7
 10
-0.835414
 20
-21.027078
 30
0.0
  0
VERTEX
  8
103
  6
CONTINUOUS
 62
     7
 10
0.0
 20
-21.075519
 30
0.0
  0
SEQEND
  8
0
  0
POLYLINE
  8
103
  6
CONTINUOUS
 62
     7
 66
     1
 10
0.0
 20
0.0
 30
0.0
  0
VERTEX
  8
103
  6
CONTINUOUS
 62
     7
 10
8.159255
 20
-302.708855
 30
0.0
  0
VERTEX
  8
103
  6
CONTINUOUS
 62
     7
 10
7.868526
 20
-303.462455
 30
0.0
  0
VERTEX
  8
103
  6
CONTINUOUS
 62
     7
 10
7.52567
 20
-304.193845
 30
0.0
  0
VERTEX
  8
103
  6
CONTINUOUS
 62
     7
 10
7.13948
 20
-304.903286
 30
0.0
  0
VERTEX
  8
103
  6
CONTINUOUS
 62
     7
 10
6.707384
 20
-305.585751
 30
0.0
  0
VERTEX
  8
103
  6
CONTINUOUS
 62
     7
 10
6.327111
 20
-306.10831
 30
0.0
  0
VERTEX
  8
103
  6
CONTINUOUS
 62
     7
 10
5.698891
 20
-306.84634
 30
0.0
  0
VERTEX
  8
103
  6
CONTINUOUS
 62
     7
 10
5.121943
 20
-307.411603
 30
0.0
  0
VERTEX
  8
103
  6
CONTINUOUS
 62
     7
 10
4.496188
 20
-307.922392
 30
0.0
  0
VERTEX
  8
103
  6
CONTINUOUS
 62
     7
 10
3.964853
 20
-308.290434
 30
0.0
  0
VERTEX
  8
103
  6
CONTINUOUS
 62
     7
 10
3.549906
 20
-308.541212
 30
0.0
  0
VERTEX
  8
103
  6
CONTINUOUS
 62
     7
 10
3.121925
 20
-308.768473
 30
0.0
  0
VERTEX
  8
103
  6
CONTINUOUS
 62
     7
 10
2.379145
 20
-309.090362
 30
0.0
  0
VERTEX
  8
103
  6
CONTINUOUS
 62
     7
 10
1.995851
 20
-309.219862
 30
0.0
  0
VERTEX
  8
103
  6
CONTINUOUS
 62
     7
 10
1.604913
 20
-309.323076
 30
0.0
  0
VERTEX
  8
103
  6
CONTINUOUS
 62
     7
 10
1.208581
 20
-309.39654
 30
0.0
  0
VERTEX
  8
103
  6
CONTINUOUS
 62
     7
 10
0.808238
 20
-309.445431
 30
0.0
  0
VERTEX
  8
103
  6
CONTINUOUS
 62
     7
 10
0.0
 20
-309.5
 30
0.0
  0
SEQEND
  8
0
  0
POLYLINE
  8
103
  6
CONTINUOUS
 62
     7
 66
     1
 10
0.0
 20
0.0
 30
0.0
  0
VERTEX
  8
103
  6
CONTINUOUS
 62
     7
 10
-8.159255
 20
-302.708855
 30
0.0
  0
VERTEX
  8
103
  6
CONTINUOUS
 62
     7
 10
-7.868526
 20
-303.462455
 30
0.0
  0
VERTEX
  8
103
  6
CONTINUOUS
 62
     7
 10
-7.52567
 20
-304.193845
 30
0.0
  0
VERTEX
  8
103
  6
CONTINUOUS
 62
     7
 10
-7.13948
 20
-304.903286
 30
0.0
  0
VERTEX
  8
103
  6
CONTINUOUS
 62
     7
 10
-6.707384
 20
-305.585751
 30
0.0
  0
VERTEX
  8
103
  6
CONTINUOUS
 62
     7
 10
-6.327111
 20
-306.10831
 30
0.0
  0
VERTEX
  8
103
  6
CONTINUOUS
 62
     7
 10
-5.698891
 20
-306.84634
 30
0.0
  0
VERTEX
  8
103
  6
CONTINUOUS
 62
     7
 10
-5.121943
 20
-307.411603
 30
0.0
  0
VERTEX
  8
103
  6
CONTINUOUS
 62
     7
 10
-4.496188
 20
-307.922392
 30
0.0
  0
VERTEX
  8
103
  6
CONTINUOUS
 62
     7
 10
-3.964853
 20
-308.290434
 30
0.0
  0
VERTEX
  8
103
  6
CONTINUOUS
 62
     7
 10
-3.549906
 20
-308.541212
 30
0.0
  0
VERTEX
  8
103
  6
CONTINUOUS
 62
     7
 10
-3.121925
 20
-308.768473
 30
0.0
  0
VERTEX
  8
103
  6
CONTINUOUS
 62
     7
 10
-2.379145
 20
-309.090362
 30
0.0
  0
VERTEX
  8
103
  6
CONTINUOUS
 62
     7
 10
-1.995851
 20
-309.219862
 30
0.0
  0
VERTEX
  8
103
  6
CONTINUOUS
 62
     7
 10
-1.604913
 20
-309.323076
 30
0.0
  0
VERTEX
  8
103
  6
CONTINUOUS
 62
     7
 10
-1.208581
 20
-309.39654
 30
0.0
  0
VERTEX
  8
103
  6
CONTINUOUS
 62
     7
 10
-0.808238
 20
-309.445431
 30
0.0
  0
VERTEX
  8
103
  6
CONTINUOUS
 62
     7
 10
0.0
 20
-309.5
 30
0.0
  0
SEQEND
  8
0
  0
CIRCLE
  8
103
  6
CONTINUOUS
 62
     7
 10
0.0
 20
19.5
 30
0.0
 40
5.5
  0
CIRCLE
  8
103
  6
CONTINUOUS
 62
     7
 10
0.0
 20
21.5
 30
0.0
 40
8.75
  0
ARC
  8
103
  6
CONTINUOUS
 62
     7
 10
0.0
 20
21.5
 30
0.0
 40
12.294554
 50
359.491509
 51
179.719554
  0
ARC
  8
103
  6
CONTINUOUS
 62
     7
 10
306.5
 20
-5.791071
 30
0.0
 40
10.0
 50
180.0
 51
230.0
  0
ARC
  8
103
  6
CONTINUOUS
 62
     7
 10
0.0
 20
21.535189
 30
0.0
 40
6.5
 50
261.150117
 51
278.849883
  0
ARC
  8
103
  6
CONTINUOUS
 62
     7
 10
0.0
 20
20.898116
 30
0.0
 40
2.5
 50
113.578178
 51
246.421822
  0
ARC
  8
103
  6
CONTINUOUS
 62
     7
 10
0.0
 20
20.898116
 30
0.0
 40
2.5
 50
293.578178
 51
66.421822
  0
ARC
  8
103
  6
CONTINUOUS
 62
     7
 10
0.0
 20
-22.500001
 30
0.0
 40
16.139387
 50
180.0
 51
236.107118
  0
ARC
  8
103
  6
CONTINUOUS
 62
     7
 10
0.0
 20
-22.500001
 30
0.0
 40
16.139387
 50
303.892882
 51
0.005756
  0
ARC
  8
103
  6
CONTINUOUS
 62
     7
 10
0.0
 20
22.499997
 30
0.0
 40
16.139387
 50
359.994244
 51
180.0
  0
ARC
  8
103
  6
CONTINUOUS
 62
     7
 10
271.0
 20
-137.0
 30
0.0
 40
9.0
 50
90.0
 51
270.0
  0
ARC
  8
103
  6
CONTINUOUS
 62
     7
 10
-12.266604
 20
-30.992817
 30
0.0
 40
3.266604
 50
0.0
 51
55.242388
  0
ARC
  8
103
  6
CONTINUOUS
 62
     7
 10
12.266604
 20
-30.992817
 30
0.0
 40
3.266604
 50
124.757612
 51
180.0
  0
ARC
  8
103
  6
CONTINUOUS
 62
     7
 10
0.0
 20
-136.713077
 30
0.0
 40
9.0
 50
180.0
 51
0.0
  0
ARC
  8
103
  6
PHANTOM
 62
     1
 10
0.0
 20
-136.713077
 30
0.0
 40
9.0
 50
0.0
 51
180.0
  0
ARC
  8
103
  6
CONTINUOUS
 62
     7
 10
0.0
 20
21.99985
 30
0.0
 40
14.88988
 50
0.0
 51
180.0
  0
ARC
  8
103
  6
CONTINUOUS
 62
     7
 10
0.0
 20
-21.999835
 30
0.0
 40
14.88988
 50
307.188368
 51
0.0
  0
ARC
  8
103
  6
CONTINUOUS
 62
     7
 10
0.0
 20
-21.999835
 30
0.0
 40
14.88988
 50
180.0
 51
232.811632
  0
ARC
  8
103
  6
PHANTOM
 62
     1
 10
0.0
 20
-21.999835
 30
0.0
 40
14.88988
 50
232.811632
 51
307.188368
  0
ARC
  8
103
  6
PHANTOM
 62
     1
 10
0.0
 20
-22.500001
 30
0.0
 40
16.139387
 50
236.107118
 51
303.892882
  0
ARC
  8
103
  6
CONTINUOUS
 62
     7
 10
223.451553
 20
0.0
 30
0.0
 40
4.951553
 50
135.02089
 51
224.97911
  0
ARC
  8
103
  6
CONTINUOUS
 62
     7
 10
0.0
 20
-221.451553
 30
0.0
 40
4.951553
 50
45.02089
 51
134.97911
  0
LINE
  8
103
  6
PHANTOM
 62
     1
 10
245.0
 20
-24.25
 30
0.0
 11
254.25
 21
-24.25
 31
0.0
  0
LINE
  8
103
  6
PHANTOM
 62
     1
 10
265.0
 20
-16.0
 30
0.0
 11
257.0
 21
-16.0
 31
0.0
  0
LINE
  8
103
  6
PHANTOM
 62
     1
 10
254.25
 20
-24.25
 30
0.0
 11
257.0
 21
-27.0
 31
0.0
  0
LINE
  8
103
  6
PHANTOM
 62
     1
 10
257.0
 20
-27.0
 30
0.0
 11
265.0
 21
-27.0
 31
0.0
  0
LINE
  8
103
  6
PHANTOM
 62
     1
 10
257.0
 20
-27.0
 30
0.0
 11
257.0
 21
-16.0
 31
0.0
  0
LINE
  8
103
  6
PHANTOM
 62
     1
 10
257.0
 20
-16.0
 30
0.0
 11
254.25
 21
-18.75
 31
0.0
  0
LINE
  8
103
  6
PHANTOM
 62
     1
 10
254.25
 20
-18.75
 30
0.0
 11
245.0
 21
-18.75
 31
0.0
  0
LINE
  8
103
  6
PHANTOM
 62
     1
 10
254.25
 20
-24.25
 30
0.0
 11
254.25
 21
-18.75
 31
0.0
  0
LINE
  8
103
  6
CONTINUOUS
 62
     7
 10
265.0
 20
16.964811
 30
0.0
 11
266.0
 21
16.964811
 31
0.0
  0
LINE
  8
103
  6
PHANTOM
 62
     1
 10
265.0
 20
25.964811
 30
0.0
 11
259.5
 21
25.964811
 31
0.0
  0
LINE
  8
103
  6
PHANTOM
 62
     1
 10
259.5
 20
25.964811
 30
0.0
 11
259.5
 21
16.964811
 31
0.0
  0
LINE
  8
103
  6
PHANTOM
 62
     1
 10
259.5
 20
16.964811
 30
0.0
 11
265.0
 21
16.964811
 31
0.0
  0
LINE
  8
103
  6
PHANTOM
 62
     1
 10
259.0
 20
17.464811
 30
0.0
 11
259.5
 21
16.964811
 31
0.0
  0
LINE
  8
103
  6
PHANTOM
 62
     1
 10
259.0
 20
25.464811
 30
0.0
 11
259.0
 21
17.464811
 31
0.0
  0
LINE
  8
103
  6
PHANTOM
 62
     1
 10
259.5
 20
25.964811
 30
0.0
 11
259.0
 21
25.464811
 31
0.0
  0
LINE
  8
103
  6
CONTINUOUS
 62
     7
 10
266.0
 20
25.964811
 30
0.0
 11
265.0
 21
25.964811
 31
0.0
  0
LINE
  8
103
  6
CONTINUOUS
 62
     7
 10
297.0
 20
12.929622
 30
0.0
 11
297.0
 21
29.929622
 31
0.0
  0
LINE
  8
103
  6
CONTINUOUS
 62
     7
 10
296.5
 20
29.929622
 30
0.0
 11
297.0
 21
29.929622
 31
0.0
  0
LINE
  8
103
  6
CONTINUOUS
 62
     7
 10
297.0
 20
24.929622
 30
0.0
 11
297.5
 21
24.929622
 31
0.0
  0
LINE
  8
103
  6
CONTINUOUS
 62
     7
 10
297.5
 20
24.929622
 30
0.0
 11
297.5
 21
13.929622
 31
0.0
  0
LINE
  8
103
  6
CONTINUOUS
 62
     7
 10
297.5
 20
13.929622
 30
0.0
 11
297.0
 21
13.929622
 31
0.0
  0
LINE
  8
103
  6
CONTINUOUS
 62
     7
 10
297.0
 20
12.929622
 30
0.0
 11
296.5
 21
12.929622
 31
0.0
  0
LINE
  8
103
  6
CONTINUOUS
 62
     7
 10
-8.5
 20
-297.0
 30
0.0
 11
8.5
 21
-297.0
 31
0.0
  0
LINE
  8
103
  6
CONTINUOUS
 62
     7
 10
11.378478
 20
-296.5
 30
0.0
 11
-11.393834
 21
-296.5
 31
0.0
  0
LINE
  8
103
  6
CONTINUOUS
 62
     7
 10
-8.5
 20
-297.0
 30
0.0
 11
-8.5
 21
-296.5
 31
0.0
  0
LINE
  8
103
  6
CONTINUOUS
 62
     7
 10
-5.5
 20
-297.5
 30
0.0
 11
-5.5
 21
-297.0
 31
0.0
  0
LINE
  8
103
  6
CONTINUOUS
 62
     7
 10
5.5
 20
-297.5
 30
0.0
 11
-5.5
 21
-297.5
 31
0.0
  0
LINE
  8
103
  6
CONTINUOUS
 62
     7
 10
5.5
 20
-297.0
 30
0.0
 11
5.5
 21
-297.5
 31
0.0
  0
LINE
  8
103
  6
CONTINUOUS
 62
     7
 10
8.5
 20
-296.5
 30
0.0
 11
8.5
 21
-297.0
 31
0.0
  0
LINE
  8
103
  6
DOT_CENTER
 62
     1
 10
-13.541759
 20
21.5
 30
0.0
 11
15.250074
 21
21.5
 31
0.0
  0
LINE
  8
103
  6
CONTINUOUS
 62
     7
 10
-12.388356
 20
-295.604528
 30
0.0
 11
-14.884006
 21
-267.103606
 31
0.0
  0
LINE
  8
103
  6
CONTINUOUS
 62
     7
 10
14.884403
 20
-267.104528
 30
0.0
 11
12.374618
 21
-295.587774
 31
0.0
  0
LINE
  8
103
  6
CONTINUOUS
 62
     7
 10
-12.294407
 20
-0.51679
 30
0.0
 11
-12.294407
 21
21.560178
 31
0.0
  0
LINE
  8
103
  6
CONTINUOUS
 62
     7
 10
-8.286419
 20
-13.910875
 30
0.0
 11
-11.757646
 21
-3.748986
 31
0.0
  0
LINE
  8
103
  6
CONTINUOUS
 62
     7
 10
11.757214
 20
-3.750042
 30
0.0
 11
8.286419
 21
-13.910875
 31
0.0
  0
LINE
  8
103
  6
CONTINUOUS
 62
     7
 10
12.29407
 20
21.390889
 30
0.0
 11
12.29407
 21
-0.517567
 31
0.0
  0
LINE
  8
103
  6
CONTINUOUS
 62
     7
 10
295.604528
 20
33.888439
 30
0.0
 11
267.130526
 21
36.881177
 31
0.0
  0
LINE
  8
103
  6
CONTINUOUS
 62
     7
 10
296.5
 20
-5.791071
 30
0.0
 11
296.5
 21
32.893917
 31
0.0
  0
LINE
  8
103
  6
CONTINUOUS
 62
     7
 10
-1.0
 20
15.112573
 30
0.0
 11
-1.0
 21
18.606828
 31
0.0
  0
LINE
  8
103
  6
CONTINUOUS
 62
     7
 10
1.0
 20
15.112573
 30
0.0
 11
1.0
 21
18.606828
 31
0.0
  0
LINE
  8
103
  6
CONTINUOUS
 62
     7
 10
1.0
 20
23.189404
 30
0.0
 11
1.0
 21
23.398116
 31
0.0
  0
LINE
  8
103
  6
CONTINUOUS
 62
     7
 10
-1.0
 20
23.189404
 30
0.0
 11
-1.0
 21
23.398116
 31
0.0
  0
LINE
  8
103
  6
CONTINUOUS
 62
     7
 10
1.0
 20
23.398116
 30
0.0
 11
-1.0
 21
23.398116
 31
0.0
  0
LINE
  8
103
  6
CONTINUOUS
 62
     7
 10
265.0
 20
-36.273377
 30
0.0
 11
265.0
 21
36.273377
 31
0.0
  0
LINE
  8
103
  6
CONTINUOUS
 62
     7
 10
250.0
 20
37.639388
 30
0.0
 11
250.0
 21
-37.639388
 31
0.0
  0
LINE
  8
103
  6
CONTINUOUS
 62
     7
 10
266.0
 20
-13.448501
 30
0.0
 11
265.0
 21
-13.624828
 31
0.0
  0
LINE
  8
103
  6
CONTINUOUS
 62
     7
 10
265.0
 20
13.624828
 30
0.0
 11
266.0
 21
13.448501
 31
0.0
  0
LINE
  8
103
  6
DOT_CENTER
 62
     1
 10
244.538749
 20
21.5
 30
0.0
 11
299.538749
 21
21.5
 31
0.0
  0
LINE
  8
103
  6
CONTINUOUS
 62
     7
 10
250.0
 20
26.349932
 30
0.0
 11
245.0
 21
25.912489
 31
0.0
  0
LINE
  8
103
  6
CONTINUOUS
 62
     7
 10
245.0
 20
17.087511
 30
0.0
 11
250.0
 21
16.650068
 31
0.0
  0
LINE
  8
103
  6
CONTINUOUS
 62
     7
 10
251.102797
 20
38.634091
 30
0.0
 11
264.130526
 21
37.264822
 31
0.0
  0
LINE
  8
103
  6
DOT_CENTER
 62
     1
 10
266.947032
 20
-21.5
 30
0.0
 11
243.947032
 21
-21.5
 31
0.0
  0
LINE
  8
103
  6
CONTINUOUS
 62
     7
 10
245.0
 20
-25.912489
 30
0.0
 11
250.0
 21
-26.349932
 31
0.0
  0
LINE
  8
103
  6
CONTINUOUS
 62
     7
 10
250.0
 20
-16.650068
 30
0.0
 11
245.0
 21
-17.087511
 31
0.0
  0
LINE
  8
103
  6
CONTINUOUS
 62
     7
 10
264.130526
 20
-37.264822
 30
0.0
 11
251.102797
 21
-38.634091
 31
0.0
  0
LINE
  8
103
  6
CONTINUOUS
 62
     7
 10
-11.323673
 20
-266.0
 30
0.0
 11
-11.5
 21
-265.0
 31
0.0
  0
LINE
  8
103
  6
CONTINUOUS
 62
     7
 10
-15.139389
 20
-250.0
 30
0.0
 11
15.139389
 21
-250.0
 31
0.0
  0
LINE
  8
103
  6
CONTINUOUS
 62
     7
 10
-13.773034
 20
-265.0
 30
0.0
 11
13.773034
 21
-265.0
 31
0.0
  0
LINE
  8
103
  6
CONTINUOUS
 62
     7
 10
11.5
 20
-265.0
 30
0.0
 11
11.323673
 21
-266.0
 31
0.0
  0
LINE
  8
103
  6
CONTINUOUS
 62
     7
 10
-16.139387
 20
22.499997
 30
0.0
 11
-16.139387
 21
-22.500001
 31
0.0
  0
LINE
  8
103
  6
CONTINUOUS
 62
     7
 10
16.139387
 20
22.498375
 30
0.0
 11
16.139387
 21
-22.49838
 31
0.0
  0
LINE
  8
103
  6
CONTINUOUS
 62
     1
 10
-9.5
 20
-265.0
 30
0.0
 11
-9.5
 21
-265.018727
 31
0.0
  0
LINE
  8
103
  6
CONTINUOUS
 62
     7
 10
-16.134091
 20
-251.102797
 30
0.0
 11
-14.767736
 21
-264.102797
 31
0.0
  0
LINE
  8
103
  6
CONTINUOUS
 62
     7
 10
14.767736
 20
-264.102797
 30
0.0
 11
16.134091
 21
-251.102797
 31
0.0
  0
LINE
  8
103
  6
CONTINUOUS
 62
     7
 10
4.849932
 20
-250.0
 30
0.0
 11
4.412489
 21
-245.0
 31
0.0
  0
LINE
  8
103
  6
CONTINUOUS
 62
     7
 10
-4.412489
 20
-245.0
 30
0.0
 11
-4.849932
 21
-250.0
 31
0.0
  0
LINE
  8
103
  6
PHANTOM
 62
     1
 10
265.0
 20
27.0
 30
0.0
 11
257.0
 21
27.0
 31
0.0
  0
LINE
  8
103
  6
PHANTOM
 62
     1
 10
257.0
 20
27.0
 30
0.0
 11
254.25
 21
24.25
 31
0.0
  0
LINE
  8
103
  6
PHANTOM
 62
     1
 10
254.25
 20
24.25
 30
0.0
 11
245.0
 21
24.25
 31
0.0
  0
LINE
  8
103
  6
PHANTOM
 62
     1
 10
245.0
 20
18.75
 30
0.0
 11
254.25
 21
18.75
 31
0.0
  0
LINE
  8
103
  6
PHANTOM
 62
     1
 10
254.25
 20
18.75
 30
0.0
 11
257.0
 21
16.0
 31
0.0
  0
LINE
  8
103
  6
PHANTOM
 62
     1
 10
257.0
 20
16.0
 30
0.0
 11
265.0
 21
16.0
 31
0.0
  0
LINE
  8
103
  6
PHANTOM
 62
     1
 10
257.0
 20
16.0
 30
0.0
 11
257.0
 21
27.0
 31
0.0
  0
LINE
  8
103
  6
PHANTOM
 62
     1
 10
254.25
 20
18.75
 30
0.0
 11
254.25
 21
24.25
 31
0.0
  0
LINE
  8
103
  6
CONTINUOUS
 62
     7
 10
-13.889388
 20
-266.0
 30
0.0
 11
13.889881
 21
-266.0
 31
0.0
  0
LINE
  8
103
  6
DOT_CENTER
 62
     1
 10
0.0
 20
-146.421037
 30
0.0
 11
0.0
 21
39.578963
 31
0.0
  0
LINE
  8
103
  6
CONTINUOUS
 62
     7
 10
218.5
 20
-3.5
 30
0.0
 11
250.0
 21
-3.5
 31
0.0
  0
LINE
  8
103
  6
DOT_CENTER
 62
     1
 10
217.067841
 20
0.0
 30
0.0
 11
291.067841
 21
0.0
 31
0.0
  0
LINE
  8
103
  6
DOT_CENTER
 62
     1
 10
0.0
 20
-215.318451
 30
0.0
 11
0.0
 21
-312.581365
 31
0.0
  0
LINE
  8
103
  6
CONTINUOUS
 62
     7
 10
3.5
 20
-216.5
 30
0.0
 11
3.5
 21
-245.0
 31
0.0
  0
LINE
  8
103
  6
CONTINUOUS
 62
     7
 10
-3.5
 20
-216.5
 30
0.0
 11
-3.5
 21
-245.0
 31
0.0
  0
LINE
  8
103
  6
CONTINUOUS
 62
     7
 10
218.5
 20
3.5
 30
0.0
 11
250.0
 21
3.5
 31
0.0
  0
LINE
  8
103
  6
CONTINUOUS
 62
     7
 10
-3.0
 20
-216.0
 30
0.0
 11
3.0
 21
-216.0
 31
0.0
  0
LINE
  8
103
  6
CONTINUOUS
 62
     7
 10
218.0
 20
-3.0
 30
0.0
 11
218.0
 21
3.0
 31
0.0
  0
LINE
  8
103
  6
CONTINUOUS
 62
     7
 10
-9.0
 20
-136.713077
 30
0.0
 11
-9.0
 21
-30.992817
 31
0.0
  0
LINE
  8
103
  6
CONTINUOUS
 62
     7
 10
9.0
 20
-136.713077
 30
0.0
 11
9.0
 21
-30.992817
 31
0.0
  0
LINE
  8
103
  6
CONTINUOUS
 62
     7
 10
8.159255
 20
-302.708855
 30
0.0
 11
10.269155
 21
-296.5
 31
0.0
  0
LINE
  8
103
  6
CONTINUOUS
 62
     7
 10
309.142788
 20
-21.062706
 30
0.0
 11
300.072124
 21
-13.451515
 31
0.0
  0
LINE
  8
103
  6
CONTINUOUS
 62
     7
 10
280.194738
 20
-35.508073
 30
0.0
 11
267.130526
 21
-36.881177
 31
0.0
  0
LINE
  8
103
  6
CONTINUOUS
 62
     7
 10
281.5
 20
-146.0
 30
0.0
 11
271.0
 21
-146.0
 31
0.0
  0
LINE
  8
103
  6
CONTINUOUS
 62
     7
 10
309.5
 20
-21.82875
 30
0.0
 11
309.5
 21
-118.0
 31
0.0
  0
LINE
  8
103
  6
CONTINUOUS
 62
     7
 10
281.5
 20
-128.0
 30
0.0
 11
271.0
 21
-128.0
 31
0.0
  0
LINE
  8
103
  6
CONTINUOUS
 62
     7
 10
291.5
 20
-45.422522
 30
0.0
 11
291.5
 21
-118.0
 31
0.0
  0
LINE
  8
103
  6
CONTINUOUS
 62
     7
 10
14.88988
 20
-21.999835
 30
0.0
 11
14.88988
 21
21.99985
 31
0.0
  0
LINE
  8
103
  6
CONTINUOUS
 62
     7
 10
-14.88988
 20
21.99985
 30
0.0
 11
-14.88988
 21
-21.999835
 31
0.0
  0
LINE
  8
103
  6
DOT_CENTER
 62
     1
 10
-17.855876
 20
0.0
 30
0.0
 11
18.144124
 21
0.0
 31
0.0
  0
LINE
  8
103
  6
DOT_CENTER
 62
     1
 10
-7.0
 20
-21.5
 30
0.0
 11
7.0
 21
-21.5
 31
0.0
  0
LINE
  8
103
  6
PHANTOM
 62
     1
 10
-3.5
 20
-3.5
 30
0.0
 11
3.5
 21
-3.5
 31
0.0
  0
LINE
  8
103
  6
PHANTOM
 62
     1
 10
3.5
 20
-3.5
 30
0.0
 11
3.5
 21
3.5
 31
0.0
  0
LINE
  8
103
  6
PHANTOM
 62
     1
 10
3.5
 20
3.5
 30
0.0
 11
-3.5
 21
3.5
 31
0.0
  0
LINE
  8
103
  6
PHANTOM
 62
     1
 10
-3.5
 20
3.5
 30
0.0
 11
-3.5
 21
-3.5
 31
0.0
  0
LINE
  8
103
  6
DOT_CENTER
 62
     1
 10
-9.885223
 20
-136.713077
 30
0.0
 11
10.114777
 21
-136.713077
 31
0.0
  0
LINE
  8
103
  6
CONTINUOUS
 62
     7
 10
-10.269155
 20
-296.5
 30
0.0
 11
-8.159255
 21
-302.708855
 31
0.0
  0
LINE
  8
103
  6
CONTINUOUS
 62
     7
 10
3.5
 20
-216.5
 30
0.0
 11
3.0
 21
-216.0
 31
0.0
  0
LINE
  8
103
  6
CONTINUOUS
 62
     7
 10
-3.0
 20
-216.0
 30
0.0
 11
-3.5
 21
-216.5
 31
0.0
  0
LINE
  8
103
  6
CONTINUOUS
 62
     7
 10
218.0
 20
3.0
 30
0.0
 11
218.5
 21
3.5
 31
0.0
  0
LINE
  8
103
  6
CONTINUOUS
 62
     7
 10
218.0
 20
-3.0
 30
0.0
 11
218.5
 21
-3.5
 31
0.0
  0
INSERT
  8
0
  2
_G_T_1
 10
0.0
 20
0.0
 30
0.0
  0
LINE
  8
103
  6
CONTINUOUS
 62
     7
 10
266.0
 20
-35.889732
 30
0.0
 11
266.0
 21
35.889732
 31
0.0
  0
LINE
  8
103
  6
CONTINUOUS
 62
     7
 10
245.0
 20
-17.087511
 30
0.0
 11
245.0
 21
-25.912489
 31
0.0
  0
LINE
  8
103
  6
CONTINUOUS
 62
     7
 10
245.0
 20
25.912489
 30
0.0
 11
245.0
 21
17.087511
 31
0.0
  0
LINE
  8
103
  6
CONTINUOUS
 62
     7
 10
-4.412489
 20
-245.0
 30
0.0
 11
4.412489
 21
-245.0
 31
0.0
  0
ENDSEC
  0
EOF
