  0
SECTION
  2
HEADER
  9
$ACADVER
  1
AC1006
  9
$DWGCODEPAGE
  3
ansi_1252
  9
$INSBASE
 10
0.0
 20
0.0
 30
0.0
  9
$EXTMIN
 10
0.0
 20
0.0
  9
$EXTMAX
 10
100.0
 20
100.0
  9
$LIMMIN
 10
0.0
 20
0.0
  9
$LIMMAX
 10
100.0
 20
100.0
  9
$VIEWCTR
 10
6.591288
 20
4.579184
  9
$VIEWSIZE
 40
9.158369
  9
$SNAPMODE
 70
     0
  9
$SNAPUNIT
 10
1.0
 20
1.0
  9
$SNAPBASE
 10
0.0
 20
0.0
  9
$SNAPANG
 50
0.0
  9
$SNAPSTYLE
 70
     0
  9
$SNAPISOPAIR
 70
     0
  9
$GRIDMODE
 70
     0
  9
$GRIDUNIT
 10
0.0
 20
0.0
  9
$ORTHOMODE
 70
     0
  9
$REGENMODE
 70
     1
  9
$FILLMODE
 70
     1
  9
$QTEXTMODE
 70
     0
  9
$MIRRTEXT
 70
     1
  9
$DRAGMODE
 70
     2
  9
$LTSCALE
 40
1.0
  9
$OSMODE
 70
     0
  9
$ATTMODE
 70
     1
  9
$TEXTSIZE
 40
0.2
  9
$TRACEWID
 40
0.05
  9
$TEXTSTYLE
  7
STANDARD
  9
$CLAYER
  8
0
  9
$CELTYPE
  6
CONTINUOUS
  9
$CECOLOR
 62
   256
  9
$DIMSCALE
 40
1.0
  9
$DIMASZ
 40
0.18
  9
$DIMEXO
 40
0.0625
  9
$DIMDLI
 40
0.38
  9
$DIMRND
 40
0.0
  9
$DIMDLE
 40
0.0
  9
$DIMEXE
 40
0.18
  9
$DIMTP
 40
0.0
  9
$DIMTM
 40
0.0
  9
$DIMTXT
 40
0.18
  9
$DIMCEN
 40
0.09
  9
$DIMTSZ
 40
0.0
  9
$DIMTOL
 70
     0
  9
$DIMLIM
 70
     0
  9
$DIMTIH
 70
     1
  9
$DIMTOH
 70
     1
  9
$DIMSE1
 70
     0
  9
$DIMSE2
 70
     0
  9
$DIMTAD
 70
     0
  9
$DIMZIN
 70
     0
  9
$DIMBLK
  1

  9
$DIMASO
 70
     1
  9
$DIMSHO
 70
     1
  9
$DIMPOST
  1

  9
$DIMAPOST
  1

  9
$DIMALT
 70
     0
  9
$DIMALTD
 70
     2
  9
$DIMALTF
 40
25.4
  9
$DIMLFAC
 40
1.0
  9
$DIMTOFL
 70
     0
  9
$DIMTVP
 40
0.0
  9
$DIMTIX
 70
     0
  9
$DIMSOXD
 70
     0
  9
$DIMSAH
 70
     0
  9
$DIMBLK1
  1

  9
$DIMBLK2
  1

  9
$LUNITS
 70
     2
  9
$LUPREC
 70
     4
  9
$AXISMODE
 70
     0
  9
$AXISUNIT
 10
0.0
 20
0.0
  9
$SKETCHINC
 40
0.1
  9
$FILLETRAD
 40
0.0
  9
$AUNITS
 70
     0
  9
$AUPREC
 70
     3
  9
$MENU
  1
acad
  9
$ELEVATION
 40
0.0
  9
$THICKNESS
 40
0.0
  9
$LIMCHECK
 70
     0
  9
$BLIPMODE
 70
     1
  9
$CHAMFERA
 40
0.0
  9
$CHAMFERB
 40
0.0
  9
$SKPOLY
 70
     0
  9
$TDCREATE
 40
0.000000000
  9
$TDUPDATE
 40
0.000000000
  9
$TDINDWG
 40
0.0000000000
  9
$TDUSRTIMER
 40
0.0000000000
  9
$USRTIMER
 70
     1
  9
$ANGBASE
 50
0.0
  9
$ANGDIR
 70
     0
  9
$PDMODE
 70
     0
  9
$PDSIZE
 40
0.0
  9
$PLINEWID
 40
0.0
  9
$COORDS
 70
     0
  9
$SPLFRAME
 70
     0
  9
$SPLINETYPE
 70
     6
  9
$SPLINESEGS
 70
     8
  9
$ATTDIA
 70
     0
  9
$ATTREQ
 70
     1
  9
$HANDLING
 70
     0
  9
$HANDSEED
  5
3
  9
$SURFTAB1
 70
     6
  9
$SURFTAB2
 70
     6
  9
$SURFTYPE
 70
     6
  9
$SURFU
 70
     6
  9
$SURFV
 70
     6
  9
$FLATLAND
 70
     0
  9
$UCSNAME
  2

  9
$UCSORG
 10
0.0
 20
0.0
 30
0.0
  9
$UCSXDIR
 10
1.0
 20
0.0
 30
0.0
  9
$UCSYDIR
 10
0.0
 20
1.0
 30
0.0
  9
$USERI1
 70
     0
  9
$USERI2
 70
     0
  9
$USERI3
 70
     0
  9
$USERI4
 70
     0
  9
$USERI5
 70
     0
  9
$USERR1
 40
0.0
  9
$USERR2
 40
0.0
  9
$USERR3
 40
0.0
  9
$USERR4
 40
0.0
  9
$USERR5
 40
0.0
  9
$WORLDVIEW
 70
     1
  0
ENDSEC
  0
SECTION
  2
TABLES
  0
TABLE
  2
VPORT
 70
     1
  0
VPORT
  2
*ACTIVE
 70
     0
 10
0.0
 20
0.0
 11
1.0
 21
1.0
 12
6.591288
 22
4.579184
 13
0.0
 23
0.0
 14
1.0
 24
1.0
 15
0.0
 25
0.0
 16
0.0
 26
0.0
 36
1.0
 17
0.0
 27
0.0
 37
0.0
 40
9.158369
 41
0.688564
 42
50.0
 43
0.0
 44
0.0
 50
0.0
 51
0.0
 71
     0
 72
   100
 73
     1
 74
     1
 75
     0
 76
     0
 77
     0
 78
     0
  0
ENDTAB
  0
TABLE
  2
LTYPE
 70
     3
  0
LTYPE
  2
CONTINUOUS
 70
     0
  3
Solid line
 72
    65
 73
     0
 40
0.0
  0
LTYPE
  2
LONG_DASHED
 70
     0
  3

 72
    65
 73
     0
 40
0.0
  0
LTYPE
  2
PHANTOM
 70
     0
  3

 72
    65
 73
     2
 40
380.999994
 49
304.799995
 49
-76.199999
  0
ENDTAB
  0
TABLE
  2
LAYER
 70
     2
  0
LAYER
  2
0
 70
     0
 62
     1
  6
CONTINUOUS
  0
LAYER
  2
100
 70
     0
 62
     1
  6
CONTINUOUS
  0
ENDTAB
  0
TABLE
  2
STYLE
 70
     1
  0
STYLE
  2
STANDARD
 70
     0
 40
0.0
 41
1.0
 50
0.0
 71
     0
 42
0.2
  3

  4

  0
ENDTAB
  0
TABLE
  2
VIEW
 70
     0
  0
ENDTAB
  0
TABLE
  2
UCS
 70
     0
  0
ENDTAB
  0
ENDSEC
  0
SECTION
  2
BLOCKS
  0
BLOCK
  8
0
  2
_G_T_1
 70
    64
 10
0.0
 20
0.0
  0
TEXT
  8
100
  6
CONTINUOUS
 62
     1
 10
125.0
 20
-177.449997
 30
0.0
 40
5.0
  1
Tuerdruecker
 41
1.000004
  0
TEXT
  8
100
  6
CONTINUOUS
 62
     1
 10
125.0
 20
-183.449997
 30
0.0
 40
5.0
  1
10230003
 41
1.000004
  0
ENDBLK
  8
0
  0
ENDSEC
  0
SECTION
  2
ENTITIES
  0
ARC
  8
100
  6
CONTINUOUS
 62
     7
 10
21.520469
 20
-280.015715
 30
0.0
 40
10.007484
 50
212.391049
 51
254.510206
  0
LINE
  8
100
  6
LONG_DASHED
 62
     1
 10
0.0
 20
-234.999973
 30
0.0
 11
0.0
 21
-277.999973
 31
0.0
  0
ARC
  8
100
  6
CONTINUOUS
 62
     7
 10
118.460649
 20
-281.919417
 30
0.0
 40
4.859502
 50
52.447013
 51
69.824916
  0
ARC
  8
100
  6
CONTINUOUS
 62
     7
 10
118.506734
 20
-281.979898
 30
0.0
 40
4.878963
 50
34.789571
 51
52.003034
  0
ARC
  8
100
  6
CONTINUOUS
 62
     7
 10
118.356719
 20
-282.116032
 30
0.0
 40
5.07998
 50
69.489461
 51
84.49931
  0
ARC
  8
100
  6
CONTINUOUS
 62
     7
 10
118.399867
 20
-282.101877
 30
0.0
 40
5.036537
 50
13.391785
 51
35.235083
  0
LINE
  8
100
  6
CONTINUOUS
 62
     7
 10
121.511605
 20
-278.133266
 30
0.0
 11
121.421206
 21
-278.068649
 31
0.0
  0
POLYLINE
  8
100
  6
CONTINUOUS
 62
     7
 66
     1
 10
0.0
 20
0.0
 30
0.0
  0
VERTEX
  8
100
  6
CONTINUOUS
 62
     7
 10
111.878537
 20
-281.246049
 30
0.0
  0
VERTEX
  8
100
  6
CONTINUOUS
 62
     7
 10
112.793693
 20
-280.401786
 30
0.0
  0
VERTEX
  8
100
  6
CONTINUOUS
 62
     7
 10
113.68555
 20
-279.533798
 30
0.0
  0
VERTEX
  8
100
  6
CONTINUOUS
 62
     7
 10
114.126648
 20
-279.093898
 30
0.0
  0
VERTEX
  8
100
  6
CONTINUOUS
 62
     7
 10
114.346804
 20
-278.873096
 30
0.0
  0
VERTEX
  8
100
  6
CONTINUOUS
 62
     7
 10
114.5667
 20
-278.651724
 30
0.0
  0
VERTEX
  8
100
  6
CONTINUOUS
 62
     7
 10
114.790649
 20
-278.43527
 30
0.0
  0
VERTEX
  8
100
  6
CONTINUOUS
 62
     7
 10
115.025477
 20
-278.232405
 30
0.0
  0
VERTEX
  8
100
  6
CONTINUOUS
 62
     7
 10
115.271675
 20
-278.043129
 30
0.0
  0
VERTEX
  8
100
  6
CONTINUOUS
 62
     7
 10
115.528024
 20
-277.867772
 30
0.0
  0
VERTEX
  8
100
  6
CONTINUOUS
 62
     7
 10
115.785098
 20
-277.712005
 30
0.0
  0
VERTEX
  8
100
  6
CONTINUOUS
 62
     7
 10
116.050449
 20
-277.570913
 30
0.0
  0
VERTEX
  8
100
  6
CONTINUOUS
 62
     7
 10
116.311108
 20
-277.450708
 30
0.0
  0
VERTEX
  8
100
  6
CONTINUOUS
 62
     7
 10
116.578142
 20
-277.345187
 30
0.0
  0
VERTEX
  8
100
  6
CONTINUOUS
 62
     7
 10
117.01773
 20
-277.207446
 30
0.0
  0
VERTEX
  8
100
  6
CONTINUOUS
 62
     7
 10
117.354777
 20
-277.130095
 30
0.0
  0
VERTEX
  8
100
  6
CONTINUOUS
 62
     7
 10
117.696386
 20
-277.075447
 30
0.0
  0
VERTEX
  8
100
  6
CONTINUOUS
 62
     7
 10
118.154999
 20
-277.038474
 30
0.0
  0
VERTEX
  8
100
  6
CONTINUOUS
 62
     7
 10
118.499911
 20
-277.037512
 30
0.0
  0
VERTEX
  8
100
  6
CONTINUOUS
 62
     7
 10
118.843675
 20
-277.059445
 30
0.0
  0
SEQEND
  8
0
  0
POLYLINE
  8
100
  6
CONTINUOUS
 62
     7
 66
     1
 10
0.0
 20
0.0
 30
0.0
  0
VERTEX
  8
100
  6
CONTINUOUS
 62
     7
 10
123.299456
 20
-280.935373
 30
0.0
  0
VERTEX
  8
100
  6
CONTINUOUS
 62
     7
 10
123.39998
 20
-281.478398
 30
0.0
  0
VERTEX
  8
100
  6
CONTINUOUS
 62
     7
 10
123.438217
 20
-281.89161
 30
0.0
  0
VERTEX
  8
100
  6
CONTINUOUS
 62
     7
 10
123.444059
 20
-282.306227
 30
0.0
  0
VERTEX
  8
100
  6
CONTINUOUS
 62
     7
 10
123.423661
 20
-282.653597
 30
0.0
  0
VERTEX
  8
100
  6
CONTINUOUS
 62
     7
 10
123.380417
 20
-282.998601
 30
0.0
  0
VERTEX
  8
100
  6
CONTINUOUS
 62
     7
 10
123.315232
 20
-283.337389
 30
0.0
  0
VERTEX
  8
100
  6
CONTINUOUS
 62
     7
 10
123.22769
 20
-283.67119
 30
0.0
  0
VERTEX
  8
100
  6
CONTINUOUS
 62
     7
 10
123.141858
 20
-283.932302
 30
0.0
  0
VERTEX
  8
100
  6
CONTINUOUS
 62
     7
 10
122.986514
 20
-284.313958
 30
0.0
  0
VERTEX
  8
100
  6
CONTINUOUS
 62
     7
 10
122.649132
 20
-284.9509
 30
0.0
  0
VERTEX
  8
100
  6
CONTINUOUS
 62
     7
 10
122.251084
 20
-285.584661
 30
0.0
  0
VERTEX
  8
100
  6
CONTINUOUS
 62
     7
 10
122.037065
 20
-285.890975
 30
0.0
  0
VERTEX
  8
100
  6
CONTINUOUS
 62
     7
 10
121.813115
 20
-286.19029
 30
0.0
  0
VERTEX
  8
100
  6
CONTINUOUS
 62
     7
 10
121.354621
 20
-286.780967
 30
0.0
  0
VERTEX
  8
100
  6
CONTINUOUS
 62
     7
 10
120.890912
 20
-287.367098
 30
0.0
  0
VERTEX
  8
100
  6
CONTINUOUS
 62
     7
 10
120.420464
 20
-287.947408
 30
0.0
  0
VERTEX
  8
100
  6
CONTINUOUS
 62
     7
 10
119.937788
 20
-288.517335
 30
0.0
  0
VERTEX
  8
100
  6
CONTINUOUS
 62
     7
 10
118.934274
 20
-289.624823
 30
0.0
  0
SEQEND
  8
0
  0
ARC
  8
100
  6
CONTINUOUS
 62
     7
 10
81.630428
 20
-247.449607
 30
0.0
 40
45.355788
 50
302.555519
 51
311.828819
  0
ARC
  8
100
  6
CONTINUOUS
 62
     7
 10
80.529506
 20
-253.768175
 30
0.0
 40
52.541655
 50
306.705426
 51
316.96521
  0
POLYLINE
  8
100
  6
CONTINUOUS
 62
     7
 66
     1
 10
0.0
 20
0.0
 30
0.0
  0
VERTEX
  8
100
  6
CONTINUOUS
 62
     7
 10
111.933708
 20
-295.891821
 30
0.0
  0
VERTEX
  8
100
  6
CONTINUOUS
 62
     7
 10
110.636137
 20
-296.831417
 30
0.0
  0
VERTEX
  8
100
  6
CONTINUOUS
 62
     7
 10
108.637096
 20
-298.165635
 30
0.0
  0
VERTEX
  8
100
  6
CONTINUOUS
 62
     7
 10
107.27131
 20
-299.003805
 30
0.0
  0
VERTEX
  8
100
  6
CONTINUOUS
 62
     7
 10
105.176436
 20
-300.181641
 30
0.0
  0
VERTEX
  8
100
  6
CONTINUOUS
 62
     7
 10
103.390909
 20
-301.089171
 30
0.0
  0
VERTEX
  8
100
  6
CONTINUOUS
 62
     7
 10
101.445002
 20
-301.983412
 30
0.0
  0
VERTEX
  8
100
  6
CONTINUOUS
 62
     7
 10
99.289109
 20
-302.855503
 30
0.0
  0
VERTEX
  8
100
  6
CONTINUOUS
 62
     7
 10
97.09501
 20
-303.629751
 30
0.0
  0
VERTEX
  8
100
  6
CONTINUOUS
 62
     7
 10
95.316377
 20
-304.178324
 30
0.0
  0
VERTEX
  8
100
  6
CONTINUOUS
 62
     7
 10
92.614782
 20
-304.882703
 30
0.0
  0
VERTEX
  8
100
  6
CONTINUOUS
 62
     7
 10
90.405181
 20
-305.347539
 30
0.0
  0
VERTEX
  8
100
  6
CONTINUOUS
 62
     7
 10
88.186669
 20
-305.713421
 30
0.0
  0
VERTEX
  8
100
  6
CONTINUOUS
 62
     7
 10
85.955691
 20
-305.99326
 30
0.0
  0
VERTEX
  8
100
  6
CONTINUOUS
 62
     7
 10
83.720287
 20
-306.239319
 30
0.0
  0
SEQEND
  8
0
  0
ARC
  8
100
  6
CONTINUOUS
 62
     7
 10
81.218576
 20
-246.855734
 30
0.0
 40
46.07798
 50
273.112711
 51
302.58979
  0
POLYLINE
  8
100
  6
CONTINUOUS
 62
     7
 66
     1
 10
0.0
 20
0.0
 30
0.0
  0
VERTEX
  8
100
  6
CONTINUOUS
 62
     7
 10
13.45071
 20
-304.487929
 30
0.0
  0
VERTEX
  8
100
  6
CONTINUOUS
 62
     7
 10
15.41213
 20
-304.964617
 30
0.0
  0
VERTEX
  8
100
  6
CONTINUOUS
 62
     7
 10
18.377993
 20
-305.57437
 30
0.0
  0
VERTEX
  8
100
  6
CONTINUOUS
 62
     7
 10
20.867597
 20
-305.98351
 30
0.0
  0
VERTEX
  8
100
  6
CONTINUOUS
 62
     7
 10
23.368699
 20
-306.307467
 30
0.0
  0
VERTEX
  8
100
  6
CONTINUOUS
 62
     7
 10
24.621614
 20
-306.441605
 30
0.0
  0
VERTEX
  8
100
  6
CONTINUOUS
 62
     7
 10
25.875185
 20
-306.567416
 30
0.0
  0
VERTEX
  8
100
  6
CONTINUOUS
 62
     7
 10
28.38394
 20
-306.802031
 30
0.0
  0
VERTEX
  8
100
  6
CONTINUOUS
 62
     7
 10
30.894677
 20
-307.013977
 30
0.0
  0
VERTEX
  8
100
  6
CONTINUOUS
 62
     7
 10
33.407194
 20
-307.203258
 30
0.0
  0
VERTEX
  8
100
  6
CONTINUOUS
 62
     7
 10
38.436759
 20
-307.513854
 30
0.0
  0
VERTEX
  8
100
  6
CONTINUOUS
 62
     7
 10
43.471021
 20
-307.733868
 30
0.0
  0
VERTEX
  8
100
  6
CONTINUOUS
 62
     7
 10
48.508364
 20
-307.863348
 30
0.0
  0
VERTEX
  8
100
  6
CONTINUOUS
 62
     7
 10
53.547173
 20
-307.902344
 30
0.0
  0
VERTEX
  8
100
  6
CONTINUOUS
 62
     7
 10
58.585778
 20
-307.850903
 30
0.0
  0
VERTEX
  8
100
  6
CONTINUOUS
 62
     7
 10
63.622724
 20
-307.709075
 30
0.0
  0
VERTEX
  8
100
  6
CONTINUOUS
 62
     7
 10
68.656215
 20
-307.47691
 30
0.0
  0
VERTEX
  8
100
  6
CONTINUOUS
 62
     7
 10
73.684751
 20
-307.15445
 30
0.0
  0
VERTEX
  8
100
  6
CONTINUOUS
 62
     7
 10
78.706739
 20
-306.741741
 30
0.0
  0
VERTEX
  8
100
  6
CONTINUOUS
 62
     7
 10
83.72033
 20
-306.238858
 30
0.0
  0
SEQEND
  8
0
  0
POLYLINE
  8
100
  6
CONTINUOUS
 62
     7
 66
     1
 10
0.0
 20
0.0
 30
0.0
  0
VERTEX
  8
100
  6
CONTINUOUS
 62
     7
 10
83.720753
 20
-292.867887
 30
0.0
  0
VERTEX
  8
100
  6
CONTINUOUS
 62
     7
 10
74.42389
 20
-293.434775
 30
0.0
  0
VERTEX
  8
100
  6
CONTINUOUS
 62
     7
 10
65.113172
 20
-293.686952
 30
0.0
  0
VERTEX
  8
100
  6
CONTINUOUS
 62
     7
 10
55.799236
 20
-293.62467
 30
0.0
  0
VERTEX
  8
100
  6
CONTINUOUS
 62
     7
 10
46.492721
 20
-293.248181
 30
0.0
  0
VERTEX
  8
100
  6
CONTINUOUS
 62
     7
 10
41.845571
 20
-292.942188
 30
0.0
  0
VERTEX
  8
100
  6
CONTINUOUS
 62
     7
 10
37.204266
 20
-292.557737
 30
0.0
  0
VERTEX
  8
100
  6
CONTINUOUS
 62
     7
 10
34.886221
 20
-292.336101
 30
0.0
  0
VERTEX
  8
100
  6
CONTINUOUS
 62
     7
 10
32.570136
 20
-292.094862
 30
0.0
  0
VERTEX
  8
100
  6
CONTINUOUS
 62
     7
 10
30.256176
 20
-291.834024
 30
0.0
  0
VERTEX
  8
100
  6
CONTINUOUS
 62
     7
 10
27.944509
 20
-291.553592
 30
0.0
  0
VERTEX
  8
100
  6
CONTINUOUS
 62
     7
 10
26.789587
 20
-291.406029
 30
0.0
  0
VERTEX
  8
100
  6
CONTINUOUS
 62
     7
 10
25.635301
 20
-291.253569
 30
0.0
  0
VERTEX
  8
100
  6
CONTINUOUS
 62
     7
 10
24.481671
 20
-291.096212
 30
0.0
  0
VERTEX
  8
100
  6
CONTINUOUS
 62
     7
 10
23.904652
 20
-291.015869
 30
0.0
  0
VERTEX
  8
100
  6
CONTINUOUS
 62
     7
 10
23.328846
 20
-290.924111
 30
0.0
  0
VERTEX
  8
100
  6
CONTINUOUS
 62
     7
 10
22.185489
 20
-290.695503
 30
0.0
  0
VERTEX
  8
100
  6
CONTINUOUS
 62
     7
 10
21.055513
 20
-290.408095
 30
0.0
  0
VERTEX
  8
100
  6
CONTINUOUS
 62
     7
 10
19.941524
 20
-290.063454
 30
0.0
  0
VERTEX
  8
100
  6
CONTINUOUS
 62
     7
 10
18.847803
 20
-289.659708
 30
0.0
  0
SEQEND
  8
0
  0
POLYLINE
  8
100
  6
CONTINUOUS
 62
     7
 66
     1
 10
0.0
 20
0.0
 30
0.0
  0
VERTEX
  8
100
  6
CONTINUOUS
 62
     7
 10
11.230953
 20
-277.834395
 30
0.0
  0
VERTEX
  8
100
  6
CONTINUOUS
 62
     7
 10
11.302233
 20
-278.954912
 30
0.0
  0
VERTEX
  8
100
  6
CONTINUOUS
 62
     7
 10
11.396412
 20
-280.073467
 30
0.0
  0
VERTEX
  8
100
  6
CONTINUOUS
 62
     7
 10
11.518069
 20
-281.189935
 30
0.0
  0
VERTEX
  8
100
  6
CONTINUOUS
 62
     7
 10
11.605613
 20
-281.744146
 30
0.0
  0
VERTEX
  8
100
  6
CONTINUOUS
 62
     7
 10
11.723841
 20
-282.292815
 30
0.0
  0
VERTEX
  8
100
  6
CONTINUOUS
 62
     7
 10
11.874188
 20
-282.833957
 30
0.0
  0
VERTEX
  8
100
  6
CONTINUOUS
 62
     7
 10
12.055004
 20
-283.365819
 30
0.0
  0
VERTEX
  8
100
  6
CONTINUOUS
 62
     7
 10
12.264602
 20
-283.886454
 30
0.0
  0
VERTEX
  8
100
  6
CONTINUOUS
 62
     7
 10
12.502776
 20
-284.394646
 30
0.0
  0
VERTEX
  8
100
  6
CONTINUOUS
 62
     7
 10
12.772336
 20
-284.893892
 30
0.0
  0
VERTEX
  8
100
  6
CONTINUOUS
 62
     7
 10
13.070033
 20
-285.376674
 30
0.0
  0
SEQEND
  8
0
  0
ARC
  8
100
  6
CONTINUOUS
 62
     7
 10
12.137578
 20
-279.766429
 30
0.0
 40
23.012242
 50
189.768198
 51
209.675973
  0
POLYLINE
  8
100
  6
CONTINUOUS
 62
     7
 66
     1
 10
0.0
 20
0.0
 30
0.0
  0
VERTEX
  8
100
  6
CONTINUOUS
 62
     7
 10
-12.000009
 20
-249.999989
 30
0.0
  0
VERTEX
  8
100
  6
CONTINUOUS
 62
     7
 10
-11.845294
 20
-254.354947
 30
0.0
  0
VERTEX
  8
100
  6
CONTINUOUS
 62
     7
 10
-11.686665
 20
-258.709769
 30
0.0
  0
VERTEX
  8
100
  6
CONTINUOUS
 62
     7
 10
-11.525549
 20
-263.064499
 30
0.0
  0
VERTEX
  8
100
  6
CONTINUOUS
 62
     7
 10
-11.362098
 20
-267.431858
 30
0.0
  0
VERTEX
  8
100
  6
CONTINUOUS
 62
     7
 10
-11.276869
 20
-269.693334
 30
0.0
  0
VERTEX
  8
100
  6
CONTINUOUS
 62
     7
 10
-11.177346
 20
-272.316003
 30
0.0
  0
VERTEX
  8
100
  6
CONTINUOUS
 62
     7
 10
-11.068939
 20
-275.158795
 30
0.0
  0
VERTEX
  8
100
  6
CONTINUOUS
 62
     7
 10
-11.01487
 20
-276.580268
 30
0.0
  0
VERTEX
  8
100
  6
CONTINUOUS
 62
     7
 10
-10.959462
 20
-278.001513
 30
0.0
  0
VERTEX
  8
100
  6
CONTINUOUS
 62
     7
 10
-10.904993
 20
-279.42286
 30
0.0
  0
VERTEX
  8
100
  6
CONTINUOUS
 62
     7
 10
-10.847634
 20
-280.844427
 30
0.0
  0
VERTEX
  8
100
  6
CONTINUOUS
 62
     7
 10
-10.73908
 20
-282.262188
 30
0.0
  0
VERTEX
  8
100
  6
CONTINUOUS
 62
     7
 10
-10.541396
 20
-283.670778
 30
0.0
  0
SEQEND
  8
0
  0
POLYLINE
  8
100
  6
CONTINUOUS
 62
     7
 66
     1
 10
0.0
 20
0.0
 30
0.0
  0
VERTEX
  8
100
  6
CONTINUOUS
 62
     7
 10
11.230953
 20
-277.834395
 30
0.0
  0
VERTEX
  8
100
  6
CONTINUOUS
 62
     7
 10
11.170658
 20
-276.207241
 30
0.0
  0
VERTEX
  8
100
  6
CONTINUOUS
 62
     7
 10
11.153659
 20
-274.579035
 30
0.0
  0
VERTEX
  8
100
  6
CONTINUOUS
 62
     7
 10
11.181963
 20
-272.951039
 30
0.0
  0
VERTEX
  8
100
  6
CONTINUOUS
 62
     7
 10
11.239695
 20
-271.323747
 30
0.0
  0
VERTEX
  8
100
  6
CONTINUOUS
 62
     7
 10
11.38433
 20
-267.406506
 30
0.0
  0
VERTEX
  8
100
  6
CONTINUOUS
 62
     7
 10
11.540776
 20
-263.06275
 30
0.0
  0
VERTEX
  8
100
  6
CONTINUOUS
 62
     7
 10
11.695047
 20
-258.708497
 30
0.0
  0
VERTEX
  8
100
  6
CONTINUOUS
 62
     7
 10
11.847744
 20
-254.354233
 30
0.0
  0
VERTEX
  8
100
  6
CONTINUOUS
 62
     7
 10
11.999991
 20
-249.999989
 30
0.0
  0
SEQEND
  8
0
  0
LINE
  8
100
  6
CONTINUOUS
 62
     7
 10
-8.0
 20
-239.499989
 30
0.0
 11
-8.0
 21
-240.899989
 31
0.0
  0
LINE
  8
100
  6
PHANTOM
 62
     1
 10
3.999991
 20
-275.999988
 30
0.0
 11
3.999991
 21
-237.999988
 31
0.0
  0
LINE
  8
100
  6
PHANTOM
 62
     1
 10
-4.000009
 20
-275.999989
 30
0.0
 11
-4.000009
 21
-237.999988
 31
0.0
  0
LINE
  8
100
  6
PHANTOM
 62
     1
 10
3.999991
 20
-275.999989
 30
0.0
 11
-4.000009
 21
-275.999989
 31
0.0
  0
LINE
  8
100
  6
CONTINUOUS
 62
     7
 10
11.999991
 20
-249.999989
 30
0.0
 11
-12.000009
 21
-249.999989
 31
0.0
  0
LINE
  8
100
  6
CONTINUOUS
 62
     7
 10
-8.925009
 20
-239.499989
 30
0.0
 11
-8.925009
 21
-237.999989
 31
0.0
  0
LINE
  8
100
  6
CONTINUOUS
 62
     7
 10
8.924991
 20
-239.499989
 30
0.0
 11
8.924991
 21
-237.999989
 31
0.0
  0
LINE
  8
100
  6
CONTINUOUS
 62
     7
 10
-8.925009
 20
-249.999989
 30
0.0
 11
-8.925009
 21
-240.899989
 31
0.0
  0
LINE
  8
100
  6
CONTINUOUS
 62
     7
 10
8.924991
 20
-249.999989
 30
0.0
 11
8.924991
 21
-240.899989
 31
0.0
  0
LINE
  8
100
  6
CONTINUOUS
 62
     7
 10
-8.925009
 20
-239.499989
 30
0.0
 11
8.924991
 21
-239.499989
 31
0.0
  0
LINE
  8
100
  6
CONTINUOUS
 62
     7
 10
8.0
 20
-239.499989
 30
0.0
 11
8.0
 21
-240.899989
 31
0.0
  0
LINE
  8
100
  6
CONTINUOUS
 62
     7
 10
-8.925009
 20
-240.899989
 30
0.0
 11
8.924991
 21
-240.899989
 31
0.0
  0
LINE
  8
100
  6
CONTINUOUS
 62
     7
 10
111.511816
 20
-281.569975
 30
0.0
 11
111.549457
 21
-281.537901
 31
0.0
  0
LINE
  8
100
  6
CONTINUOUS
 62
     7
 10
110.530214
 20
-282.406432
 30
0.0
 11
110.580758
 21
-282.363361
 31
0.0
  0
POLYLINE
  8
100
  6
CONTINUOUS
 62
     7
 66
     1
 10
0.0
 20
0.0
 30
0.0
  0
VERTEX
  8
100
  6
CONTINUOUS
 62
     7
 10
111.878659
 20
-281.245937
 30
0.0
  0
VERTEX
  8
100
  6
CONTINUOUS
 62
     7
 10
112.33977
 20
-280.822765
 30
0.0
  0
VERTEX
  8
100
  6
CONTINUOUS
 62
     7
 10
112.81819
 20
-280.368284
 30
0.0
  0
VERTEX
  8
100
  6
CONTINUOUS
 62
     7
 10
113.300544
 20
-279.897915
 30
0.0
  0
VERTEX
  8
100
  6
CONTINUOUS
 62
     7
 10
113.781045
 20
-279.425629
 30
0.0
  0
VERTEX
  8
100
  6
CONTINUOUS
 62
     7
 10
114.25149
 20
-278.962284
 30
0.0
  0
VERTEX
  8
100
  6
CONTINUOUS
 62
     7
 10
114.719409
 20
-278.504423
 30
0.0
  0
VERTEX
  8
100
  6
CONTINUOUS
 62
     7
 10
114.967147
 20
-278.282745
 30
0.0
  0
VERTEX
  8
100
  6
CONTINUOUS
 62
     7
 10
115.226968
 20
-278.075721
 30
0.0
  0
SEQEND
  8
0
  0
LINE
  8
100
  6
CONTINUOUS
 62
     7
 10
121.414468
 20
-278.060706
 30
0.0
 11
121.429827
 21
-278.072215
 31
0.0
  0
POLYLINE
  8
100
  6
CONTINUOUS
 62
     7
 66
     1
 10
0.0
 20
0.0
 30
0.0
  0
VERTEX
  8
100
  6
CONTINUOUS
 62
     7
 10
121.14306
 20
-277.867295
 30
0.0
  0
VERTEX
  8
100
  6
CONTINUOUS
 62
     7
 10
121.360153
 20
-277.997222
 30
0.0
  0
VERTEX
  8
100
  6
CONTINUOUS
 62
     7
 10
121.449142
 20
-278.060895
 30
0.0
  0
VERTEX
  8
100
  6
CONTINUOUS
 62
     7
 10
121.575802
 20
-278.16527
 30
0.0
  0
VERTEX
  8
100
  6
CONTINUOUS
 62
     7
 10
121.734979
 20
-278.321483
 30
0.0
  0
SEQEND
  8
0
  0
ARC
  8
100
  6
CONTINUOUS
 62
     7
 10
20.493785
 20
-269.533514
 30
0.0
 40
35.656921
 50
217.337241
 51
258.607831
  0
LINE
  8
100
  6
LONG_DASHED
 62
     1
 10
235.999987
 20
0.000533
 30
0.0
 11
309.999987
 21
0.000533
 31
0.0
  0
LINE
  8
100
  6
CONTINUOUS
 62
     7
 10
249.999999
 20
12.000526
 30
0.0
 11
250.0
 21
0.000525
 31
0.0
  0
LINE
  8
100
  6
CONTINUOUS
 62
     7
 10
250.0
 20
0.000525
 30
0.0
 11
249.999999
 21
-11.999475
 31
0.0
  0
LINE
  8
100
  6
CONTINUOUS
 62
     7
 10
237.999999
 20
8.925525
 30
0.0
 11
237.999999
 21
-8.924475
 31
0.0
  0
LINE
  8
100
  6
CONTINUOUS
 62
     7
 10
249.999999
 20
-8.924475
 30
0.0
 11
240.899999
 21
-8.924475
 31
0.0
  0
LINE
  8
100
  6
CONTINUOUS
 62
     7
 10
239.499999
 20
-8.924475
 30
0.0
 11
237.999999
 21
-8.924475
 31
0.0
  0
LINE
  8
100
  6
CONTINUOUS
 62
     7
 10
239.499999
 20
8.925525
 30
0.0
 11
239.499999
 21
-8.924475
 31
0.0
  0
LINE
  8
100
  6
CONTINUOUS
 62
     7
 10
240.899999
 20
8.925525
 30
0.0
 11
240.899999
 21
-8.924475
 31
0.0
  0
LINE
  8
100
  6
PHANTOM
 62
     1
 10
237.999999
 20
4.000525
 30
0.0
 11
275.999999
 21
4.000525
 31
0.0
  0
LINE
  8
100
  6
PHANTOM
 62
     1
 10
237.999999
 20
-3.999475
 30
0.0
 11
275.999999
 21
-3.999475
 31
0.0
  0
LINE
  8
100
  6
PHANTOM
 62
     1
 10
275.999999
 20
-3.999475
 30
0.0
 11
275.999999
 21
4.000525
 31
0.0
  0
LINE
  8
100
  6
CONTINUOUS
 62
     7
 10
239.499999
 20
8.000525
 30
0.0
 11
240.899999
 21
8.000525
 31
0.0
  0
LINE
  8
100
  6
CONTINUOUS
 62
     7
 10
239.499999
 20
-7.999475
 30
0.0
 11
240.899999
 21
-7.999475
 31
0.0
  0
LINE
  8
100
  6
CONTINUOUS
 62
     7
 10
249.999999
 20
8.925525
 30
0.0
 11
240.899999
 21
8.925525
 31
0.0
  0
LINE
  8
100
  6
CONTINUOUS
 62
     7
 10
239.499999
 20
8.925525
 30
0.0
 11
237.999999
 21
8.925525
 31
0.0
  0
ARC
  8
100
  6
CONTINUOUS
 62
     7
 10
235.455767
 20
1482.836529
 30
0.0
 40
1494.906757
 50
270.55745
 51
271.737312
  0
ARC
  8
100
  6
CONTINUOUS
 62
     7
 10
235.465842
 20
-1482.332449
 30
0.0
 40
1494.403654
 50
88.262489
 51
89.442748
  0
POLYLINE
  8
100
  6
CONTINUOUS
 62
     7
 66
     1
 10
0.0
 20
0.0
 30
0.0
  0
VERTEX
  8
100
  6
CONTINUOUS
 62
     7
 10
298.283262
 20
10.343654
 30
0.0
  0
VERTEX
  8
100
  6
CONTINUOUS
 62
     7
 10
296.87222
 20
10.522727
 30
0.0
  0
VERTEX
  8
100
  6
CONTINUOUS
 62
     7
 10
295.216697
 20
10.691103
 30
0.0
  0
VERTEX
  8
100
  6
CONTINUOUS
 62
     7
 10
293.166483
 20
10.850059
 30
0.0
  0
VERTEX
  8
100
  6
CONTINUOUS
 62
     7
 10
290.593571
 20
10.997758
 30
0.0
  0
VERTEX
  8
100
  6
CONTINUOUS
 62
     7
 10
287.584255
 20
11.135779
 30
0.0
  0
VERTEX
  8
100
  6
CONTINUOUS
 62
     7
 10
284.259884
 20
11.264676
 30
0.0
  0
VERTEX
  8
100
  6
CONTINUOUS
 62
     7
 10
280.778802
 20
11.384062
 30
0.0
  0
SEQEND
  8
0
  0
POLYLINE
  8
100
  6
CONTINUOUS
 62
     7
 66
     1
 10
0.0
 20
0.0
 30
0.0
  0
VERTEX
  8
100
  6
CONTINUOUS
 62
     7
 10
298.283262
 20
-10.342603
 30
0.0
  0
VERTEX
  8
100
  6
CONTINUOUS
 62
     7
 10
296.87222
 20
-10.521676
 30
0.0
  0
VERTEX
  8
100
  6
CONTINUOUS
 62
     7
 10
295.216697
 20
-10.690052
 30
0.0
  0
VERTEX
  8
100
  6
CONTINUOUS
 62
     7
 10
293.166483
 20
-10.849008
 30
0.0
  0
VERTEX
  8
100
  6
CONTINUOUS
 62
     7
 10
290.593571
 20
-10.996707
 30
0.0
  0
VERTEX
  8
100
  6
CONTINUOUS
 62
     7
 10
287.584255
 20
-11.134728
 30
0.0
  0
VERTEX
  8
100
  6
CONTINUOUS
 62
     7
 10
284.259884
 20
-11.263625
 30
0.0
  0
VERTEX
  8
100
  6
CONTINUOUS
 62
     7
 10
280.778802
 20
-11.383011
 30
0.0
  0
SEQEND
  8
0
  0
POLYLINE
  8
100
  6
CONTINUOUS
 62
     7
 66
     1
 10
0.0
 20
0.0
 30
0.0
  0
VERTEX
  8
100
  6
CONTINUOUS
 62
     7
 10
307.902567
 20
0.000531
 30
0.0
  0
VERTEX
  8
100
  6
CONTINUOUS
 62
     7
 10
307.865859
 20
-0.794104
 30
0.0
  0
VERTEX
  8
100
  6
CONTINUOUS
 62
     7
 10
307.789602
 20
-1.586018
 30
0.0
  0
VERTEX
  8
100
  6
CONTINUOUS
 62
     7
 10
307.67676
 20
-2.357961
 30
0.0
  0
VERTEX
  8
100
  6
CONTINUOUS
 62
     7
 10
307.528034
 20
-3.113934
 30
0.0
  0
VERTEX
  8
100
  6
CONTINUOUS
 62
     7
 10
307.328144
 20
-3.880337
 30
0.0
  0
VERTEX
  8
100
  6
CONTINUOUS
 62
     7
 10
307.078681
 20
-4.634575
 30
0.0
  0
VERTEX
  8
100
  6
CONTINUOUS
 62
     7
 10
306.80224
 20
-5.303889
 30
0.0
  0
VERTEX
  8
100
  6
CONTINUOUS
 62
     7
 10
306.52456
 20
-5.85886
 30
0.0
  0
VERTEX
  8
100
  6
CONTINUOUS
 62
     7
 10
306.282038
 20
-6.281235
 30
0.0
  0
VERTEX
  8
100
  6
CONTINUOUS
 62
     7
 10
306.016335
 20
-6.689233
 30
0.0
  0
VERTEX
  8
100
  6
CONTINUOUS
 62
     7
 10
305.521167
 20
-7.327043
 30
0.0
  0
VERTEX
  8
100
  6
CONTINUOUS
 62
     7
 10
305.178017
 20
-7.700626
 30
0.0
  0
VERTEX
  8
100
  6
CONTINUOUS
 62
     7
 10
304.904717
 20
-7.965293
 30
0.0
  0
VERTEX
  8
100
  6
CONTINUOUS
 62
     7
 10
304.617762
 20
-8.214889
 30
0.0
  0
VERTEX
  8
100
  6
CONTINUOUS
 62
     7
 10
304.321839
 20
-8.444786
 30
0.0
  0
VERTEX
  8
100
  6
CONTINUOUS
 62
     7
 10
303.85587
 20
-8.758901
 30
0.0
  0
VERTEX
  8
100
  6
CONTINUOUS
 62
     7
 10
303.191809
 20
-9.124611
 30
0.0
  0
VERTEX
  8
100
  6
CONTINUOUS
 62
     7
 10
302.650083
 20
-9.367255
 30
0.0
  0
VERTEX
  8
100
  6
CONTINUOUS
 62
     7
 10
302.094239
 20
-9.575929
 30
0.0
  0
VERTEX
  8
100
  6
CONTINUOUS
 62
     7
 10
301.133966
 20
-9.864925
 30
0.0
  0
VERTEX
  8
100
  6
CONTINUOUS
 62
     7
 10
299.976952
 20
-10.125983
 30
0.0
  0
VERTEX
  8
100
  6
CONTINUOUS
 62
     7
 10
299.065404
 20
-10.265145
 30
0.0
  0
VERTEX
  8
100
  6
CONTINUOUS
 62
     7
 10
298.148077
 20
-10.361457
 30
0.0
  0
SEQEND
  8
0
  0
POLYLINE
  8
100
  6
CONTINUOUS
 62
     7
 66
     1
 10
0.0
 20
0.0
 30
0.0
  0
VERTEX
  8
100
  6
CONTINUOUS
 62
     7
 10
298.150301
 20
10.3622
 30
0.0
  0
VERTEX
  8
100
  6
CONTINUOUS
 62
     7
 10
299.114256
 20
10.261036
 30
0.0
  0
VERTEX
  8
100
  6
CONTINUOUS
 62
     7
 10
299.971296
 20
10.127259
 30
0.0
  0
VERTEX
  8
100
  6
CONTINUOUS
 62
     7
 10
301.132271
 20
9.865957
 30
0.0
  0
VERTEX
  8
100
  6
CONTINUOUS
 62
     7
 10
302.094078
 20
9.576903
 30
0.0
  0
VERTEX
  8
100
  6
CONTINUOUS
 62
     7
 10
302.651284
 20
9.36795
 30
0.0
  0
VERTEX
  8
100
  6
CONTINUOUS
 62
     7
 10
303.194542
 20
9.124318
 30
0.0
  0
VERTEX
  8
100
  6
CONTINUOUS
 62
     7
 10
303.788613
 20
8.800234
 30
0.0
  0
VERTEX
  8
100
  6
CONTINUOUS
 62
     7
 10
304.213826
 20
8.522986
 30
0.0
  0
VERTEX
  8
100
  6
CONTINUOUS
 62
     7
 10
304.617689
 20
8.216141
 30
0.0
  0
VERTEX
  8
100
  6
CONTINUOUS
 62
     7
 10
304.999335
 20
7.878204
 30
0.0
  0
VERTEX
  8
100
  6
CONTINUOUS
 62
     7
 10
305.525335
 20
7.323362
 30
0.0
  0
VERTEX
  8
100
  6
CONTINUOUS
 62
     7
 10
306.016732
 20
6.689777
 30
0.0
  0
VERTEX
  8
100
  6
CONTINUOUS
 62
     7
 10
306.282878
 20
6.280944
 30
0.0
  0
VERTEX
  8
100
  6
CONTINUOUS
 62
     7
 10
306.525764
 20
5.85769
 30
0.0
  0
VERTEX
  8
100
  6
CONTINUOUS
 62
     7
 10
306.803323
 20
5.302608
 30
0.0
  0
VERTEX
  8
100
  6
CONTINUOUS
 62
     7
 10
307.079027
 20
4.634245
 30
0.0
  0
VERTEX
  8
100
  6
CONTINUOUS
 62
     7
 10
307.328569
 20
3.879946
 30
0.0
  0
VERTEX
  8
100
  6
CONTINUOUS
 62
     7
 10
307.528141
 20
3.113716
 30
0.0
  0
VERTEX
  8
100
  6
CONTINUOUS
 62
     7
 10
307.677034
 20
2.358004
 30
0.0
  0
VERTEX
  8
100
  6
CONTINUOUS
 62
     7
 10
307.789484
 20
1.586984
 30
0.0
  0
VERTEX
  8
100
  6
CONTINUOUS
 62
     7
 10
307.865742
 20
0.795103
 30
0.0
  0
VERTEX
  8
100
  6
CONTINUOUS
 62
     7
 10
307.902567
 20
0.00052
 30
0.0
  0
SEQEND
  8
0
  0
LINE
  8
100
  6
LONG_DASHED
 62
     1
 10
0.000003
 20
-12.999489
 30
0.0
 11
0.000003
 21
13.000496
 31
0.0
  0
LINE
  8
100
  6
LONG_DASHED
 62
     1
 10
-12.999474
 20
0.000003
 30
0.0
 11
124.000526
 21
0.000003
 31
0.0
  0
POLYLINE
  8
100
  6
CONTINUOUS
 62
     7
 66
     1
 10
0.0
 20
0.0
 30
0.0
  0
VERTEX
  8
100
  6
CONTINUOUS
 62
     7
 10
-10.541365
 20
0.000534
 30
0.0
  0
VERTEX
  8
100
  6
CONTINUOUS
 62
     7
 10
-10.516687
 20
-0.872304
 30
0.0
  0
VERTEX
  8
100
  6
CONTINUOUS
 62
     7
 10
-10.4403
 20
-1.646068
 30
0.0
  0
VERTEX
  8
100
  6
CONTINUOUS
 62
     7
 10
-10.332745
 20
-2.309492
 30
0.0
  0
VERTEX
  8
100
  6
CONTINUOUS
 62
     7
 10
-10.187015
 20
-2.965927
 30
0.0
  0
VERTEX
  8
100
  6
CONTINUOUS
 62
     7
 10
-9.857503
 20
-4.044899
 30
0.0
  0
VERTEX
  8
100
  6
CONTINUOUS
 62
     7
 10
-9.541832
 20
-4.830833
 30
0.0
  0
VERTEX
  8
100
  6
CONTINUOUS
 62
     7
 10
-9.168976
 20
-5.591494
 30
0.0
  0
VERTEX
  8
100
  6
CONTINUOUS
 62
     7
 10
-8.878625
 20
-6.100021
 30
0.0
  0
VERTEX
  8
100
  6
CONTINUOUS
 62
     7
 10
-8.562411
 20
-6.592833
 30
0.0
  0
VERTEX
  8
100
  6
CONTINUOUS
 62
     7
 10
-8.22112
 20
-7.068567
 30
0.0
  0
VERTEX
  8
100
  6
CONTINUOUS
 62
     7
 10
-7.855538
 20
-7.525862
 30
0.0
  0
VERTEX
  8
100
  6
CONTINUOUS
 62
     7
 10
-7.466452
 20
-7.963356
 30
0.0
  0
VERTEX
  8
100
  6
CONTINUOUS
 62
     7
 10
-7.054346
 20
-8.380068
 30
0.0
  0
VERTEX
  8
100
  6
CONTINUOUS
 62
     7
 10
-6.620678
 20
-8.774368
 30
0.0
  0
VERTEX
  8
100
  6
CONTINUOUS
 62
     7
 10
-6.166642
 20
-9.145044
 30
0.0
  0
VERTEX
  8
100
  6
CONTINUOUS
 62
     7
 10
-5.693433
 20
-9.49088
 30
0.0
  0
VERTEX
  8
100
  6
CONTINUOUS
 62
     7
 10
-5.202247
 20
-9.810665
 30
0.0
  0
VERTEX
  8
100
  6
CONTINUOUS
 62
     7
 10
-4.710935
 20
-10.094265
 30
0.0
  0
VERTEX
  8
100
  6
CONTINUOUS
 62
     7
 10
-4.205348
 20
-10.351572
 30
0.0
  0
VERTEX
  8
100
  6
CONTINUOUS
 62
     7
 10
-3.68693
 20
-10.581832
 30
0.0
  0
VERTEX
  8
100
  6
CONTINUOUS
 62
     7
 10
-3.157124
 20
-10.784291
 30
0.0
  0
VERTEX
  8
100
  6
CONTINUOUS
 62
     7
 10
-2.617376
 20
-10.958195
 30
0.0
  0
VERTEX
  8
100
  6
CONTINUOUS
 62
     7
 10
-1.580602
 20
-11.205725
 30
0.0
  0
VERTEX
  8
100
  6
CONTINUOUS
 62
     7
 10
-0.789469
 20
-11.322075
 30
0.0
  0
VERTEX
  8
100
  6
CONTINUOUS
 62
     7
 10
0.00847
 20
-11.378034
 30
0.0
  0
VERTEX
  8
100
  6
CONTINUOUS
 62
     7
 10
1.046754
 20
-11.359714
 30
0.0
  0
VERTEX
  8
100
  6
CONTINUOUS
 62
     7
 10
1.821096
 20
-11.279126
 30
0.0
  0
VERTEX
  8
100
  6
CONTINUOUS
 62
     7
 10
2.586152
 20
-11.141943
 30
0.0
  0
SEQEND
  8
0
  0
POLYLINE
  8
100
  6
CONTINUOUS
 62
     7
 66
     1
 10
0.0
 20
0.0
 30
0.0
  0
VERTEX
  8
100
  6
CONTINUOUS
 62
     7
 10
2.586152
 20
11.142994
 30
0.0
  0
VERTEX
  8
100
  6
CONTINUOUS
 62
     7
 10
1.563768
 20
11.313359
 30
0.0
  0
VERTEX
  8
100
  6
CONTINUOUS
 62
     7
 10
0.787438
 20
11.374941
 30
0.0
  0
VERTEX
  8
100
  6
CONTINUOUS
 62
     7
 10
0.00847
 20
11.379085
 30
0.0
  0
VERTEX
  8
100
  6
CONTINUOUS
 62
     7
 10
-1.05415
 20
11.291009
 30
0.0
  0
VERTEX
  8
100
  6
CONTINUOUS
 62
     7
 10
-1.842052
 20
11.154726
 30
0.0
  0
VERTEX
  8
100
  6
CONTINUOUS
 62
     7
 10
-2.617376
 20
10.959246
 30
0.0
  0
VERTEX
  8
100
  6
CONTINUOUS
 62
     7
 10
-3.157124
 20
10.785342
 30
0.0
  0
VERTEX
  8
100
  6
CONTINUOUS
 62
     7
 10
-3.68693
 20
10.582883
 30
0.0
  0
VERTEX
  8
100
  6
CONTINUOUS
 62
     7
 10
-4.205348
 20
10.352623
 30
0.0
  0
VERTEX
  8
100
  6
CONTINUOUS
 62
     7
 10
-4.710935
 20
10.095316
 30
0.0
  0
VERTEX
  8
100
  6
CONTINUOUS
 62
     7
 10
-5.202247
 20
9.811716
 30
0.0
  0
VERTEX
  8
100
  6
CONTINUOUS
 62
     7
 10
-5.693433
 20
9.491931
 30
0.0
  0
VERTEX
  8
100
  6
CONTINUOUS
 62
     7
 10
-6.166642
 20
9.146095
 30
0.0
  0
VERTEX
  8
100
  6
CONTINUOUS
 62
     7
 10
-6.620678
 20
8.775419
 30
0.0
  0
VERTEX
  8
100
  6
CONTINUOUS
 62
     7
 10
-7.054346
 20
8.381119
 30
0.0
  0
VERTEX
  8
100
  6
CONTINUOUS
 62
     7
 10
-7.466452
 20
7.964407
 30
0.0
  0
VERTEX
  8
100
  6
CONTINUOUS
 62
     7
 10
-7.855538
 20
7.526913
 30
0.0
  0
VERTEX
  8
100
  6
CONTINUOUS
 62
     7
 10
-8.22112
 20
7.069618
 30
0.0
  0
VERTEX
  8
100
  6
CONTINUOUS
 62
     7
 10
-8.562411
 20
6.593884
 30
0.0
  0
VERTEX
  8
100
  6
CONTINUOUS
 62
     7
 10
-8.878625
 20
6.101072
 30
0.0
  0
VERTEX
  8
100
  6
CONTINUOUS
 62
     7
 10
-9.168976
 20
5.592544
 30
0.0
  0
VERTEX
  8
100
  6
CONTINUOUS
 62
     7
 10
-9.653479
 20
4.572478
 30
0.0
  0
VERTEX
  8
100
  6
CONTINUOUS
 62
     7
 10
-9.949776
 20
3.779181
 30
0.0
  0
VERTEX
  8
100
  6
CONTINUOUS
 62
     7
 10
-10.187015
 20
2.966978
 30
0.0
  0
VERTEX
  8
100
  6
CONTINUOUS
 62
     7
 10
-10.332745
 20
2.310543
 30
0.0
  0
VERTEX
  8
100
  6
CONTINUOUS
 62
     7
 10
-10.4403
 20
1.647119
 30
0.0
  0
VERTEX
  8
100
  6
CONTINUOUS
 62
     7
 10
-10.516687
 20
0.873355
 30
0.0
  0
VERTEX
  8
100
  6
CONTINUOUS
 62
     7
 10
-10.541365
 20
0.000517
 30
0.0
  0
SEQEND
  8
0
  0
CIRCLE
  8
100
  6
PHANTOM
 62
     1
 10
0.000017
 20
0.000525
 30
0.0
 40
8.925
  0
CIRCLE
  8
100
  6
PHANTOM
 62
     1
 10
0.000017
 20
0.000525
 30
0.0
 40
8.0
  0
LINE
  8
100
  6
PHANTOM
 62
     1
 10
-3.999983
 20
4.000525
 30
0.0
 11
4.000017
 21
4.000525
 31
0.0
  0
LINE
  8
100
  6
PHANTOM
 62
     1
 10
4.000017
 20
4.000525
 30
0.0
 11
4.000017
 21
-3.999475
 31
0.0
  0
LINE
  8
100
  6
PHANTOM
 62
     1
 10
4.000017
 20
-3.999475
 30
0.0
 11
-3.999983
 21
-3.999475
 31
0.0
  0
LINE
  8
100
  6
PHANTOM
 62
     1
 10
-3.999983
 20
-3.999475
 30
0.0
 11
-3.999983
 21
4.000525
 31
0.0
  0
POLYLINE
  8
100
  6
CONTINUOUS
 62
     7
 66
     1
 10
0.0
 20
0.0
 30
0.0
  0
VERTEX
  8
100
  6
CONTINUOUS
 62
     7
 10
15.990411
 20
10.391381
 30
0.0
  0
VERTEX
  8
100
  6
CONTINUOUS
 62
     7
 10
13.226055
 20
10.528555
 30
0.0
  0
VERTEX
  8
100
  6
CONTINUOUS
 62
     7
 10
11.872972
 20
10.595873
 30
0.0
  0
VERTEX
  8
100
  6
CONTINUOUS
 62
     7
 10
10.54567
 20
10.662238
 30
0.0
  0
VERTEX
  8
100
  6
CONTINUOUS
 62
     7
 10
9.251406
 20
10.727547
 30
0.0
  0
VERTEX
  8
100
  6
CONTINUOUS
 62
     7
 10
8.009826
 20
10.791603
 30
0.0
  0
VERTEX
  8
100
  6
CONTINUOUS
 62
     7
 10
6.844341
 20
10.854172
 30
0.0
  0
VERTEX
  8
100
  6
CONTINUOUS
 62
     7
 10
5.774486
 20
10.914899
 30
0.0
  0
VERTEX
  8
100
  6
CONTINUOUS
 62
     7
 10
4.815113
 20
10.973287
 30
0.0
  0
VERTEX
  8
100
  6
CONTINUOUS
 62
     7
 10
4.381222
 20
11.001454
 30
0.0
  0
VERTEX
  8
100
  6
CONTINUOUS
 62
     7
 10
3.979028
 20
11.028926
 30
0.0
  0
VERTEX
  8
100
  6
CONTINUOUS
 62
     7
 10
3.60984
 20
11.055624
 30
0.0
  0
VERTEX
  8
100
  6
CONTINUOUS
 62
     7
 10
3.279978
 20
11.080991
 30
0.0
  0
VERTEX
  8
100
  6
CONTINUOUS
 62
     7
 10
2.997284
 20
11.104321
 30
0.0
  0
VERTEX
  8
100
  6
CONTINUOUS
 62
     7
 10
2.765818
 20
11.125178
 30
0.0
  0
VERTEX
  8
100
  6
CONTINUOUS
 62
     7
 10
2.666617
 20
11.134803
 30
0.0
  0
VERTEX
  8
100
  6
CONTINUOUS
 62
     7
 10
2.580383
 20
11.143598
 30
0.0
  0
VERTEX
  8
100
  6
CONTINUOUS
 62
     7
 10
2.509937
 20
11.151179
 30
0.0
  0
VERTEX
  8
100
  6
CONTINUOUS
 62
     7
 10
2.456138
 20
11.157266
 30
0.0
  0
VERTEX
  8
100
  6
CONTINUOUS
 62
     7
 10
2.417682
 20
11.161837
 30
0.0
  0
VERTEX
  8
100
  6
CONTINUOUS
 62
     7
 10
2.386795
 20
11.165772
 30
0.0
  0
VERTEX
  8
100
  6
CONTINUOUS
 62
     7
 10
2.371825
 20
11.167768
 30
0.0
  0
VERTEX
  8
100
  6
CONTINUOUS
 62
     7
 10
2.36496
 20
11.168949
 30
0.0
  0
VERTEX
  8
100
  6
CONTINUOUS
 62
     7
 10
2.361646
 20
11.169388
 30
0.0
  0
VERTEX
  8
100
  6
CONTINUOUS
 62
     7
 10
2.358529
 20
11.16957
 30
0.0
  0
VERTEX
  8
100
  6
CONTINUOUS
 62
     7
 10
2.355156
 20
11.169519
 30
0.0
  0
VERTEX
  8
100
  6
CONTINUOUS
 62
     7
 10
2.354275
 20
11.169555
 30
0.0
  0
VERTEX
  8
100
  6
CONTINUOUS
 62
     7
 10
2.353354
 20
11.169644
 30
0.0
  0
VERTEX
  8
100
  6
CONTINUOUS
 62
     7
 10
2.35238
 20
11.169803
 30
0.0
  0
VERTEX
  8
100
  6
CONTINUOUS
 62
     7
 10
2.351339
 20
11.170049
 30
0.0
  0
VERTEX
  8
100
  6
CONTINUOUS
 62
     7
 10
2.350219
 20
11.170398
 30
0.0
  0
VERTEX
  8
100
  6
CONTINUOUS
 62
     7
 10
2.349008
 20
11.170867
 30
0.0
  0
VERTEX
  8
100
  6
CONTINUOUS
 62
     7
 10
2.347079
 20
11.171682
 30
0.0
  0
VERTEX
  8
100
  6
CONTINUOUS
 62
     7
 10
2.346647
 20
11.17182
 30
0.0
  0
VERTEX
  8
100
  6
CONTINUOUS
 62
     7
 10
2.346446
 20
11.171869
 30
0.0
  0
VERTEX
  8
100
  6
CONTINUOUS
 62
     7
 10
2.346257
 20
11.171902
 30
0.0
  0
VERTEX
  8
100
  6
CONTINUOUS
 62
     7
 10
2.346082
 20
11.171916
 30
0.0
  0
VERTEX
  8
100
  6
CONTINUOUS
 62
     7
 10
2.346
 20
11.171916
 30
0.0
  0
VERTEX
  8
100
  6
CONTINUOUS
 62
     7
 10
2.345923
 20
11.171911
 30
0.0
  0
VERTEX
  8
100
  6
CONTINUOUS
 62
     7
 10
2.345849
 20
11.1719
 30
0.0
  0
VERTEX
  8
100
  6
CONTINUOUS
 62
     7
 10
2.345779
 20
11.171884
 30
0.0
  0
VERTEX
  8
100
  6
CONTINUOUS
 62
     7
 10
2.345715
 20
11.171861
 30
0.0
  0
VERTEX
  8
100
  6
CONTINUOUS
 62
     7
 10
2.345684
 20
11.171848
 30
0.0
  0
VERTEX
  8
100
  6
CONTINUOUS
 62
     7
 10
2.345654
 20
11.171833
 30
0.0
  0
VERTEX
  8
100
  6
CONTINUOUS
 62
     7
 10
2.345626
 20
11.171816
 30
0.0
  0
VERTEX
  8
100
  6
CONTINUOUS
 62
     7
 10
2.345599
 20
11.171797
 30
0.0
  0
VERTEX
  8
100
  6
CONTINUOUS
 62
     7
 10
2.345573
 20
11.171777
 30
0.0
  0
VERTEX
  8
100
  6
CONTINUOUS
 62
     7
 10
2.345549
 20
11.171756
 30
0.0
  0
VERTEX
  8
100
  6
CONTINUOUS
 62
     7
 10
2.345526
 20
11.171732
 30
0.0
  0
VERTEX
  8
100
  6
CONTINUOUS
 62
     7
 10
2.345504
 20
11.171707
 30
0.0
  0
VERTEX
  8
100
  6
CONTINUOUS
 62
     7
 10
2.345484
 20
11.17168
 30
0.0
  0
VERTEX
  8
100
  6
CONTINUOUS
 62
     7
 10
2.345464
 20
11.171651
 30
0.0
  0
VERTEX
  8
100
  6
CONTINUOUS
 62
     7
 10
2.345447
 20
11.171621
 30
0.0
  0
VERTEX
  8
100
  6
CONTINUOUS
 62
     7
 10
2.345431
 20
11.171588
 30
0.0
  0
VERTEX
  8
100
  6
CONTINUOUS
 62
     7
 10
2.345416
 20
11.171554
 30
0.0
  0
VERTEX
  8
100
  6
CONTINUOUS
 62
     7
 10
2.345391
 20
11.171479
 30
0.0
  0
VERTEX
  8
100
  6
CONTINUOUS
 62
     7
 10
2.345376
 20
11.171418
 30
0.0
  0
VERTEX
  8
100
  6
CONTINUOUS
 62
     7
 10
2.345364
 20
11.171352
 30
0.0
  0
SEQEND
  8
0
  0
POLYLINE
  8
100
  6
CONTINUOUS
 62
     7
 66
     1
 10
0.0
 20
0.0
 30
0.0
  0
VERTEX
  8
100
  6
CONTINUOUS
 62
     7
 10
15.990411
 20
-10.39033
 30
0.0
  0
VERTEX
  8
100
  6
CONTINUOUS
 62
     7
 10
13.226055
 20
-10.527504
 30
0.0
  0
VERTEX
  8
100
  6
CONTINUOUS
 62
     7
 10
11.872972
 20
-10.594822
 30
0.0
  0
VERTEX
  8
100
  6
CONTINUOUS
 62
     7
 10
10.545671
 20
-10.661187
 30
0.0
  0
VERTEX
  8
100
  6
CONTINUOUS
 62
     7
 10
9.251406
 20
-10.726496
 30
0.0
  0
VERTEX
  8
100
  6
CONTINUOUS
 62
     7
 10
8.009826
 20
-10.790552
 30
0.0
  0
VERTEX
  8
100
  6
CONTINUOUS
 62
     7
 10
6.844341
 20
-10.853121
 30
0.0
  0
VERTEX
  8
100
  6
CONTINUOUS
 62
     7
 10
5.774486
 20
-10.913848
 30
0.0
  0
VERTEX
  8
100
  6
CONTINUOUS
 62
     7
 10
4.815113
 20
-10.972236
 30
0.0
  0
VERTEX
  8
100
  6
CONTINUOUS
 62
     7
 10
4.381222
 20
-11.000404
 30
0.0
  0
VERTEX
  8
100
  6
CONTINUOUS
 62
     7
 10
3.979028
 20
-11.027875
 30
0.0
  0
VERTEX
  8
100
  6
CONTINUOUS
 62
     7
 10
3.60984
 20
-11.054573
 30
0.0
  0
VERTEX
  8
100
  6
CONTINUOUS
 62
     7
 10
3.279978
 20
-11.07994
 30
0.0
  0
VERTEX
  8
100
  6
CONTINUOUS
 62
     7
 10
2.997284
 20
-11.10327
 30
0.0
  0
VERTEX
  8
100
  6
CONTINUOUS
 62
     7
 10
2.765818
 20
-11.124127
 30
0.0
  0
VERTEX
  8
100
  6
CONTINUOUS
 62
     7
 10
2.666617
 20
-11.133752
 30
0.0
  0
VERTEX
  8
100
  6
CONTINUOUS
 62
     7
 10
2.580383
 20
-11.142547
 30
0.0
  0
VERTEX
  8
100
  6
CONTINUOUS
 62
     7
 10
2.509937
 20
-11.150128
 30
0.0
  0
VERTEX
  8
100
  6
CONTINUOUS
 62
     7
 10
2.456138
 20
-11.156215
 30
0.0
  0
VERTEX
  8
100
  6
CONTINUOUS
 62
     7
 10
2.417682
 20
-11.160786
 30
0.0
  0
VERTEX
  8
100
  6
CONTINUOUS
 62
     7
 10
2.386795
 20
-11.164721
 30
0.0
  0
VERTEX
  8
100
  6
CONTINUOUS
 62
     7
 10
2.371825
 20
-11.166717
 30
0.0
  0
VERTEX
  8
100
  6
CONTINUOUS
 62
     7
 10
2.36496
 20
-11.167898
 30
0.0
  0
VERTEX
  8
100
  6
CONTINUOUS
 62
     7
 10
2.361646
 20
-11.168337
 30
0.0
  0
VERTEX
  8
100
  6
CONTINUOUS
 62
     7
 10
2.358529
 20
-11.168519
 30
0.0
  0
VERTEX
  8
100
  6
CONTINUOUS
 62
     7
 10
2.355156
 20
-11.168468
 30
0.0
  0
VERTEX
  8
100
  6
CONTINUOUS
 62
     7
 10
2.354275
 20
-11.168504
 30
0.0
  0
VERTEX
  8
100
  6
CONTINUOUS
 62
     7
 10
2.353354
 20
-11.168593
 30
0.0
  0
VERTEX
  8
100
  6
CONTINUOUS
 62
     7
 10
2.35238
 20
-11.168752
 30
0.0
  0
VERTEX
  8
100
  6
CONTINUOUS
 62
     7
 10
2.351339
 20
-11.168998
 30
0.0
  0
VERTEX
  8
100
  6
CONTINUOUS
 62
     7
 10
2.350219
 20
-11.169347
 30
0.0
  0
VERTEX
  8
100
  6
CONTINUOUS
 62
     7
 10
2.349008
 20
-11.169816
 30
0.0
  0
VERTEX
  8
100
  6
CONTINUOUS
 62
     7
 10
2.347079
 20
-11.170631
 30
0.0
  0
VERTEX
  8
100
  6
CONTINUOUS
 62
     7
 10
2.346647
 20
-11.170769
 30
0.0
  0
VERTEX
  8
100
  6
CONTINUOUS
 62
     7
 10
2.346446
 20
-11.170818
 30
0.0
  0
VERTEX
  8
100
  6
CONTINUOUS
 62
     7
 10
2.346257
 20
-11.170851
 30
0.0
  0
VERTEX
  8
100
  6
CONTINUOUS
 62
     7
 10
2.346082
 20
-11.170865
 30
0.0
  0
VERTEX
  8
100
  6
CONTINUOUS
 62
     7
 10
2.346
 20
-11.170865
 30
0.0
  0
VERTEX
  8
100
  6
CONTINUOUS
 62
     7
 10
2.345923
 20
-11.17086
 30
0.0
  0
VERTEX
  8
100
  6
CONTINUOUS
 62
     7
 10
2.345849
 20
-11.170849
 30
0.0
  0
VERTEX
  8
100
  6
CONTINUOUS
 62
     7
 10
2.345779
 20
-11.170833
 30
0.0
  0
VERTEX
  8
100
  6
CONTINUOUS
 62
     7
 10
2.345715
 20
-11.17081
 30
0.0
  0
VERTEX
  8
100
  6
CONTINUOUS
 62
     7
 10
2.345684
 20
-11.170797
 30
0.0
  0
VERTEX
  8
100
  6
CONTINUOUS
 62
     7
 10
2.345654
 20
-11.170782
 30
0.0
  0
VERTEX
  8
100
  6
CONTINUOUS
 62
     7
 10
2.345626
 20
-11.170765
 30
0.0
  0
VERTEX
  8
100
  6
CONTINUOUS
 62
     7
 10
2.345599
 20
-11.170747
 30
0.0
  0
VERTEX
  8
100
  6
CONTINUOUS
 62
     7
 10
2.345573
 20
-11.170727
 30
0.0
  0
VERTEX
  8
100
  6
CONTINUOUS
 62
     7
 10
2.345549
 20
-11.170705
 30
0.0
  0
VERTEX
  8
100
  6
CONTINUOUS
 62
     7
 10
2.345526
 20
-11.170681
 30
0.0
  0
VERTEX
  8
100
  6
CONTINUOUS
 62
     7
 10
2.345504
 20
-11.170656
 30
0.0
  0
VERTEX
  8
100
  6
CONTINUOUS
 62
     7
 10
2.345484
 20
-11.170629
 30
0.0
  0
VERTEX
  8
100
  6
CONTINUOUS
 62
     7
 10
2.345464
 20
-11.1706
 30
0.0
  0
VERTEX
  8
100
  6
CONTINUOUS
 62
     7
 10
2.345447
 20
-11.17057
 30
0.0
  0
VERTEX
  8
100
  6
CONTINUOUS
 62
     7
 10
2.345431
 20
-11.170537
 30
0.0
  0
VERTEX
  8
100
  6
CONTINUOUS
 62
     7
 10
2.345416
 20
-11.170503
 30
0.0
  0
VERTEX
  8
100
  6
CONTINUOUS
 62
     7
 10
2.345391
 20
-11.170428
 30
0.0
  0
VERTEX
  8
100
  6
CONTINUOUS
 62
     7
 10
2.345376
 20
-11.170367
 30
0.0
  0
VERTEX
  8
100
  6
CONTINUOUS
 62
     7
 10
2.345364
 20
-11.170301
 30
0.0
  0
SEQEND
  8
0
  0
LINE
  8
100
  6
CONTINUOUS
 62
     7
 10
83.720569
 20
-8.641901
 30
0.0
 11
15.976072
 21
-10.390869
 31
0.0
  0
LINE
  8
100
  6
CONTINUOUS
 62
     7
 10
15.976072
 20
10.39192
 30
0.0
 11
83.720569
 21
8.642952
 31
0.0
  0
POLYLINE
  8
100
  6
CONTINUOUS
 62
     7
 66
     1
 10
0.0
 20
0.0
 30
0.0
  0
VERTEX
  8
100
  6
CONTINUOUS
 62
     7
 10
83.720484
 20
8.643029
 30
0.0
  0
VERTEX
  8
100
  6
CONTINUOUS
 62
     7
 10
92.633885
 20
8.426712
 30
0.0
  0
VERTEX
  8
100
  6
CONTINUOUS
 62
     7
 10
101.165183
 20
8.212507
 30
0.0
  0
VERTEX
  8
100
  6
CONTINUOUS
 62
     7
 10
108.984196
 20
8.042605
 30
0.0
  0
SEQEND
  8
0
  0
POLYLINE
  8
100
  6
CONTINUOUS
 62
     7
 66
     1
 10
0.0
 20
0.0
 30
0.0
  0
VERTEX
  8
100
  6
CONTINUOUS
 62
     7
 10
83.720484
 20
-8.641978
 30
0.0
  0
VERTEX
  8
100
  6
CONTINUOUS
 62
     7
 10
92.633885
 20
-8.425661
 30
0.0
  0
VERTEX
  8
100
  6
CONTINUOUS
 62
     7
 10
101.165183
 20
-8.211456
 30
0.0
  0
VERTEX
  8
100
  6
CONTINUOUS
 62
     7
 10
108.984196
 20
-8.041554
 30
0.0
  0
SEQEND
  8
0
  0
ARC
  8
100
  6
CONTINUOUS
 62
     7
 10
122.203018
 20
-171.008412
 30
0.0
 40
163.499582
 50
92.220003
 51
94.604946
  0
ARC
  8
100
  6
CONTINUOUS
 62
     7
 10
122.203018
 20
171.009463
 30
0.0
 40
163.499582
 50
265.395054
 51
267.779997
  0
POLYLINE
  8
100
  6
CONTINUOUS
 62
     7
 66
     1
 10
0.0
 20
0.0
 30
0.0
  0
VERTEX
  8
100
  6
CONTINUOUS
 62
     7
 10
115.879562
 20
7.632326
 30
0.0
  0
VERTEX
  8
100
  6
CONTINUOUS
 62
     7
 10
116.516893
 20
7.588255
 30
0.0
  0
VERTEX
  8
100
  6
CONTINUOUS
 62
     7
 10
117.466561
 20
7.459309
 30
0.0
  0
VERTEX
  8
100
  6
CONTINUOUS
 62
     7
 10
118.245259
 20
7.28504
 30
0.0
  0
VERTEX
  8
100
  6
CONTINUOUS
 62
     7
 10
118.632101
 20
7.167843
 30
0.0
  0
VERTEX
  8
100
  6
CONTINUOUS
 62
     7
 10
119.012055
 20
7.028948
 30
0.0
  0
VERTEX
  8
100
  6
CONTINUOUS
 62
     7
 10
119.603028
 20
6.758849
 30
0.0
  0
VERTEX
  8
100
  6
CONTINUOUS
 62
     7
 10
120.026865
 20
6.5179
 30
0.0
  0
VERTEX
  8
100
  6
CONTINUOUS
 62
     7
 10
120.429711
 20
6.24425
 30
0.0
  0
VERTEX
  8
100
  6
CONTINUOUS
 62
     7
 10
120.697607
 20
6.033207
 30
0.0
  0
VERTEX
  8
100
  6
CONTINUOUS
 62
     7
 10
121.075611
 20
5.688948
 30
0.0
  0
VERTEX
  8
100
  6
CONTINUOUS
 62
     7
 10
121.317031
 20
5.436132
 30
0.0
  0
VERTEX
  8
100
  6
CONTINUOUS
 62
     7
 10
121.653271
 20
5.033827
 30
0.0
  0
VERTEX
  8
100
  6
CONTINUOUS
 62
     7
 10
122.164563
 20
4.289601
 30
0.0
  0
VERTEX
  8
100
  6
CONTINUOUS
 62
     7
 10
122.604032
 20
3.496446
 30
0.0
  0
VERTEX
  8
100
  6
CONTINUOUS
 62
     7
 10
122.792705
 20
3.084599
 30
0.0
  0
VERTEX
  8
100
  6
CONTINUOUS
 62
     7
 10
122.958985
 20
2.663171
 30
0.0
  0
VERTEX
  8
100
  6
CONTINUOUS
 62
     7
 10
123.101949
 20
2.232963
 30
0.0
  0
VERTEX
  8
100
  6
CONTINUOUS
 62
     7
 10
123.219905
 20
1.795186
 30
0.0
  0
VERTEX
  8
100
  6
CONTINUOUS
 62
     7
 10
123.354599
 20
1.083474
 30
0.0
  0
VERTEX
  8
100
  6
CONTINUOUS
 62
     7
 10
123.415605
 20
0.543106
 30
0.0
  0
VERTEX
  8
100
  6
CONTINUOUS
 62
     7
 10
123.445946
 20
0.000689
 30
0.0
  0
SEQEND
  8
0
  0
POLYLINE
  8
100
  6
CONTINUOUS
 62
     7
 66
     1
 10
0.0
 20
0.0
 30
0.0
  0
VERTEX
  8
100
  6
CONTINUOUS
 62
     7
 10
115.879562
 20
-7.631275
 30
0.0
  0
VERTEX
  8
100
  6
CONTINUOUS
 62
     7
 10
116.516893
 20
-7.587204
 30
0.0
  0
VERTEX
  8
100
  6
CONTINUOUS
 62
     7
 10
117.466561
 20
-7.458258
 30
0.0
  0
VERTEX
  8
100
  6
CONTINUOUS
 62
     7
 10
118.245259
 20
-7.283989
 30
0.0
  0
VERTEX
  8
100
  6
CONTINUOUS
 62
     7
 10
118.632101
 20
-7.166792
 30
0.0
  0
VERTEX
  8
100
  6
CONTINUOUS
 62
     7
 10
119.012055
 20
-7.027897
 30
0.0
  0
VERTEX
  8
100
  6
CONTINUOUS
 62
     7
 10
119.603028
 20
-6.757798
 30
0.0
  0
VERTEX
  8
100
  6
CONTINUOUS
 62
     7
 10
120.026865
 20
-6.516849
 30
0.0
  0
VERTEX
  8
100
  6
CONTINUOUS
 62
     7
 10
120.429711
 20
-6.243199
 30
0.0
  0
VERTEX
  8
100
  6
CONTINUOUS
 62
     7
 10
120.697607
 20
-6.032156
 30
0.0
  0
VERTEX
  8
100
  6
CONTINUOUS
 62
     7
 10
121.075611
 20
-5.687897
 30
0.0
  0
VERTEX
  8
100
  6
CONTINUOUS
 62
     7
 10
121.317031
 20
-5.435082
 30
0.0
  0
VERTEX
  8
100
  6
CONTINUOUS
 62
     7
 10
121.653271
 20
-5.032776
 30
0.0
  0
VERTEX
  8
100
  6
CONTINUOUS
 62
     7
 10
122.164563
 20
-4.28855
 30
0.0
  0
VERTEX
  8
100
  6
CONTINUOUS
 62
     7
 10
122.604032
 20
-3.495395
 30
0.0
  0
VERTEX
  8
100
  6
CONTINUOUS
 62
     7
 10
122.792705
 20
-3.083548
 30
0.0
  0
VERTEX
  8
100
  6
CONTINUOUS
 62
     7
 10
122.958985
 20
-2.66212
 30
0.0
  0
VERTEX
  8
100
  6
CONTINUOUS
 62
     7
 10
123.101949
 20
-2.231912
 30
0.0
  0
VERTEX
  8
100
  6
CONTINUOUS
 62
     7
 10
123.219905
 20
-1.794135
 30
0.0
  0
VERTEX
  8
100
  6
CONTINUOUS
 62
     7
 10
123.354599
 20
-1.082423
 30
0.0
  0
VERTEX
  8
100
  6
CONTINUOUS
 62
     7
 10
123.415605
 20
-0.542055
 30
0.0
  0
VERTEX
  8
100
  6
CONTINUOUS
 62
     7
 10
123.445946
 20
0.000362
 30
0.0
  0
SEQEND
  8
0
  0
ARC
  8
100
  6
CONTINUOUS
 62
     7
 10
0.002137
 20
-0.000871
 30
0.0
 40
12.00212
 50
66.073009
 51
293.926991
  0
ARC
  8
100
  6
PHANTOM
 62
     1
 10
-0.000401
 20
0.002117
 30
0.0
 40
12.000418
 50
293.943853
 51
66.056147
  0
LINE
  8
100
  6
CONTINUOUS
 62
     7
 10
8.924991
 20
-237.999988
 30
0.0
 11
-8.925009
 21
-237.999988
 31
0.0
  0
INSERT
  8
0
  2
_G_T_1
 10
0.0
 20
0.0
 30
0.0
  0
ENDSEC
  0
EOF
