  0
SECTION
  2
HEADER
  9
$ACADVER
  1
AC1006
  9
$DWGCODEPAGE
  3
ansi_1252
  9
$INSBASE
 10
0.0
 20
0.0
 30
0.0
  9
$EXTMIN
 10
0.0
 20
0.0
  9
$EXTMAX
 10
100.0
 20
100.0
  9
$LIMMIN
 10
0.0
 20
0.0
  9
$LIMMAX
 10
100.0
 20
100.0
  9
$VIEWCTR
 10
6.591288
 20
4.579184
  9
$VIEWSIZE
 40
9.158369
  9
$SNAPMODE
 70
     0
  9
$SNAPUNIT
 10
1.0
 20
1.0
  9
$SNAPBASE
 10
0.0
 20
0.0
  9
$SNAPANG
 50
0.0
  9
$SNAPSTYLE
 70
     0
  9
$SNAPISOPAIR
 70
     0
  9
$GRIDMODE
 70
     0
  9
$GRIDUNIT
 10
0.0
 20
0.0
  9
$ORTHOMODE
 70
     0
  9
$REGENMODE
 70
     1
  9
$FILLMODE
 70
     1
  9
$QTEXTMODE
 70
     0
  9
$MIRRTEXT
 70
     1
  9
$DRAGMODE
 70
     2
  9
$LTSCALE
 40
1.0
  9
$OSMODE
 70
     0
  9
$ATTMODE
 70
     1
  9
$TEXTSIZE
 40
0.2
  9
$TRACEWID
 40
0.05
  9
$TEXTSTYLE
  7
STANDARD
  9
$CLAYER
  8
0
  9
$CELTYPE
  6
CONTINUOUS
  9
$CECOLOR
 62
   256
  9
$DIMSCALE
 40
1.0
  9
$DIMASZ
 40
0.18
  9
$DIMEXO
 40
0.0625
  9
$DIMDLI
 40
0.38
  9
$DIMRND
 40
0.0
  9
$DIMDLE
 40
0.0
  9
$DIMEXE
 40
0.18
  9
$DIMTP
 40
0.0
  9
$DIMTM
 40
0.0
  9
$DIMTXT
 40
0.18
  9
$DIMCEN
 40
0.09
  9
$DIMTSZ
 40
0.0
  9
$DIMTOL
 70
     0
  9
$DIMLIM
 70
     0
  9
$DIMTIH
 70
     1
  9
$DIMTOH
 70
     1
  9
$DIMSE1
 70
     0
  9
$DIMSE2
 70
     0
  9
$DIMTAD
 70
     0
  9
$DIMZIN
 70
     0
  9
$DIMBLK
  1

  9
$DIMASO
 70
     1
  9
$DIMSHO
 70
     1
  9
$DIMPOST
  1

  9
$DIMAPOST
  1

  9
$DIMALT
 70
     0
  9
$DIMALTD
 70
     2
  9
$DIMALTF
 40
25.4
  9
$DIMLFAC
 40
1.0
  9
$DIMTOFL
 70
     0
  9
$DIMTVP
 40
0.0
  9
$DIMTIX
 70
     0
  9
$DIMSOXD
 70
     0
  9
$DIMSAH
 70
     0
  9
$DIMBLK1
  1

  9
$DIMBLK2
  1

  9
$LUNITS
 70
     2
  9
$LUPREC
 70
     4
  9
$AXISMODE
 70
     0
  9
$AXISUNIT
 10
0.0
 20
0.0
  9
$SKETCHINC
 40
0.1
  9
$FILLETRAD
 40
0.0
  9
$AUNITS
 70
     0
  9
$AUPREC
 70
     3
  9
$MENU
  1
acad
  9
$ELEVATION
 40
0.0
  9
$THICKNESS
 40
0.0
  9
$LIMCHECK
 70
     0
  9
$BLIPMODE
 70
     1
  9
$CHAMFERA
 40
0.0
  9
$CHAMFERB
 40
0.0
  9
$SKPOLY
 70
     0
  9
$TDCREATE
 40
0.000000000
  9
$TDUPDATE
 40
0.000000000
  9
$TDINDWG
 40
0.0000000000
  9
$TDUSRTIMER
 40
0.0000000000
  9
$USRTIMER
 70
     1
  9
$ANGBASE
 50
0.0
  9
$ANGDIR
 70
     0
  9
$PDMODE
 70
     0
  9
$PDSIZE
 40
0.0
  9
$PLINEWID
 40
0.0
  9
$COORDS
 70
     0
  9
$SPLFRAME
 70
     0
  9
$SPLINETYPE
 70
     6
  9
$SPLINESEGS
 70
     8
  9
$ATTDIA
 70
     0
  9
$ATTREQ
 70
     1
  9
$HANDLING
 70
     0
  9
$HANDSEED
  5
3
  9
$SURFTAB1
 70
     6
  9
$SURFTAB2
 70
     6
  9
$SURFTYPE
 70
     6
  9
$SURFU
 70
     6
  9
$SURFV
 70
     6
  9
$FLATLAND
 70
     0
  9
$UCSNAME
  2

  9
$UCSORG
 10
0.0
 20
0.0
 30
0.0
  9
$UCSXDIR
 10
1.0
 20
0.0
 30
0.0
  9
$UCSYDIR
 10
0.0
 20
1.0
 30
0.0
  9
$USERI1
 70
     0
  9
$USERI2
 70
     0
  9
$USERI3
 70
     0
  9
$USERI4
 70
     0
  9
$USERI5
 70
     0
  9
$USERR1
 40
0.0
  9
$USERR2
 40
0.0
  9
$USERR3
 40
0.0
  9
$USERR4
 40
0.0
  9
$USERR5
 40
0.0
  9
$WORLDVIEW
 70
     1
  0
ENDSEC
  0
SECTION
  2
TABLES
  0
TABLE
  2
VPORT
 70
     1
  0
VPORT
  2
*ACTIVE
 70
     0
 10
0.0
 20
0.0
 11
1.0
 21
1.0
 12
6.591288
 22
4.579184
 13
0.0
 23
0.0
 14
1.0
 24
1.0
 15
0.0
 25
0.0
 16
0.0
 26
0.0
 36
1.0
 17
0.0
 27
0.0
 37
0.0
 40
9.158369
 41
0.688564
 42
50.0
 43
0.0
 44
0.0
 50
0.0
 51
0.0
 71
     0
 72
   100
 73
     1
 74
     1
 75
     0
 76
     0
 77
     0
 78
     0
  0
ENDTAB
  0
TABLE
  2
LTYPE
 70
     3
  0
LTYPE
  2
CONTINUOUS
 70
     0
  3
Solid line
 72
    65
 73
     0
 40
0.0
  0
LTYPE
  2
DOT_CENTER
 70
     0
  3

 72
    65
 73
     0
 40
0.0
  0
LTYPE
  2
PHANTOM
 70
     0
  3

 72
    65
 73
     2
 40
380.999994
 49
304.799995
 49
-76.199999
  0
ENDTAB
  0
TABLE
  2
LAYER
 70
     2
  0
LAYER
  2
0
 70
     0
 62
     1
  6
CONTINUOUS
  0
LAYER
  2
104
 70
     0
 62
     1
  6
CONTINUOUS
  0
ENDTAB
  0
TABLE
  2
STYLE
 70
     1
  0
STYLE
  2
STANDARD
 70
     0
 40
0.0
 41
1.0
 50
0.0
 71
     0
 42
0.2
  3

  4

  0
ENDTAB
  0
TABLE
  2
VIEW
 70
     0
  0
ENDTAB
  0
TABLE
  2
UCS
 70
     0
  0
ENDTAB
  0
ENDSEC
  0
SECTION
  2
BLOCKS
  0
BLOCK
  8
0
  2
_G_T_1
 70
    64
 10
0.0
 20
0.0
  0
TEXT
  8
104
  6
CONTINUOUS
 62
     1
 10
125.0
 20
-176.449997
 30
0.0
 40
5.0
  1
Tuerdruecker fuer Rahmentueren
 41
1.000004
  0
TEXT
  8
104
  6
CONTINUOUS
 62
     1
 10
125.0
 20
-183.449997
 30
0.0
 40
5.0
  1
73310002
 41
1.000004
  0
ENDBLK
  8
0
  0
ENDSEC
  0
SECTION
  2
ENTITIES
  0
ARC
  8
104
  6
CONTINUOUS
 62
     7
 10
-116.25
 20
-245.55
 30
0.0
 40
1.25
 50
180.0
 51
270.0
  0
ARC
  8
104
  6
CONTINUOUS
 62
     7
 10
-127.0
 20
-257.670555
 30
0.0
 40
15.0
 50
326.5
 51
0.0
  0
ARC
  8
104
  6
CONTINUOUS
 62
     7
 10
-133.5
 20
-267.490984
 30
0.0
 40
15.0
 50
270.0
 51
326.5
  0
ARC
  8
104
  6
DOT_CENTER
 62
     1
 10
-203.5
 20
-267.490984
 30
0.0
 40
25.0
 50
180.0
 51
270.0
  0
ARC
  8
104
  6
CONTINUOUS
 62
     7
 10
-228.5
 20
-262.490984
 30
0.0
 40
10.0
 50
0.0
 51
180.0
  0
ARC
  8
104
  6
CONTINUOUS
 62
     7
 10
-203.5
 20
-267.490984
 30
0.0
 40
35.0
 50
180.0
 51
270.0
  0
ARC
  8
104
  6
CONTINUOUS
 62
     7
 10
-203.5
 20
-267.490984
 30
0.0
 40
15.0
 50
180.0
 51
270.0
  0
ARC
  8
104
  6
DOT_CENTER
 62
     1
 10
-133.5
 20
-267.490984
 30
0.0
 40
25.0
 50
270.0
 51
326.5
  0
ARC
  8
104
  6
CONTINUOUS
 62
     7
 10
-133.5
 20
-267.490984
 30
0.0
 40
35.0
 50
270.0
 51
326.5
  0
ARC
  8
104
  6
CONTINUOUS
 62
     7
 10
-103.0
 20
-257.646531
 30
0.0
 40
15.0
 50
326.5
 51
360.0
  0
ARC
  8
104
  6
CONTINUOUS
 62
     7
 10
-107.95
 20
-236.492351
 30
0.0
 40
1.0
 50
90.0
 51
180.0
  0
ARC
  8
104
  6
CONTINUOUS
 62
     7
 10
-92.05
 20
-236.492351
 30
0.0
 40
1.0
 50
0.0
 51
90.0
  0
ARC
  8
104
  6
CONTINUOUS
 62
     7
 10
-83.75
 20
-245.55
 30
0.0
 40
1.25
 50
270.0
 51
0.0
  0
ARC
  8
104
  6
DOT_CENTER
 62
     1
 10
-125.0
 20
-254.648885
 30
0.0
 40
25.0
 50
326.5
 51
0.0
  0
ARC
  8
104
  6
CONTINUOUS
 62
     7
 10
-4.080511
 20
-234.8
 30
0.0
 40
0.5
 50
90.0
 51
165.963757
  0
ARC
  8
104
  6
CONTINUOUS
 62
     7
 10
4.080511
 20
-234.8
 30
0.0
 40
0.5
 50
14.036243
 51
90.0
  0
ARC
  8
104
  6
CONTINUOUS
 62
     7
 10
-16.25
 20
-252.05
 30
0.0
 40
1.25
 50
180.0
 51
270.0
  0
ARC
  8
104
  6
CONTINUOUS
 62
     7
 10
16.25
 20
-252.05
 30
0.0
 40
1.25
 50
270.0
 51
0.0
  0
ARC
  8
104
  6
CONTINUOUS
 62
     7
 10
252.05
 20
91.75
 30
0.0
 40
1.25
 50
0.0
 51
90.0
  0
ARC
  8
104
  6
CONTINUOUS
 62
     7
 10
234.8
 20
79.580511
 30
0.0
 40
0.5
 50
104.036243
 51
180.0
  0
ARC
  8
104
  6
CONTINUOUS
 62
     7
 10
234.8
 20
71.419489
 30
0.0
 40
0.5
 50
180.0
 51
255.963757
  0
ARC
  8
104
  6
CONTINUOUS
 62
     7
 10
252.3
 20
-80.5
 30
0.0
 40
1.5
 50
0.0
 51
48.189685
  0
ARC
  8
104
  6
PHANTOM
 62
     1
 10
252.3
 20
-119.5
 30
0.0
 40
1.5
 50
270.0
 51
311.810315
  0
ARC
  8
104
  6
CONTINUOUS
 62
     7
 10
252.05
 20
-150.75
 30
0.0
 40
1.25
 50
270.0
 51
0.0
  0
ARC
  8
104
  6
PHANTOM
 62
     1
 10
252.3
 20
-80.5
 30
0.0
 40
1.5
 50
48.189685
 51
90.0
  0
ARC
  8
104
  6
CONTINUOUS
 62
     7
 10
252.3
 20
-119.5
 30
0.0
 40
1.5
 50
311.810315
 51
0.0
  0
ARC
  8
104
  6
CONTINUOUS
 62
     7
 10
234.8
 20
-17.419489
 30
0.0
 40
0.5
 50
104.036243
 51
180.0
  0
ARC
  8
104
  6
CONTINUOUS
 62
     7
 10
234.8
 20
-25.580511
 30
0.0
 40
0.5
 50
180.0
 51
255.963757
  0
ARC
  8
104
  6
CONTINUOUS
 62
     7
 10
234.8
 20
-130.419489
 30
0.0
 40
0.5
 50
104.036243
 51
180.0
  0
ARC
  8
104
  6
CONTINUOUS
 62
     7
 10
234.8
 20
-138.580511
 30
0.0
 40
0.5
 50
180.0
 51
255.963757
  0
ARC
  8
104
  6
CONTINUOUS
 62
     7
 10
0.0
 20
-86.5
 30
0.0
 40
2.5
 50
0.0
 51
180.0
  0
ARC
  8
104
  6
CONTINUOUS
 62
     7
 10
0.0
 20
-97.5
 30
0.0
 40
2.5
 50
180.0
 51
0.0
  0
ARC
  8
104
  6
CONTINUOUS
 62
     7
 10
0.0
 20
-92.0
 30
0.0
 40
13.25
 50
0.0
 51
180.0
  0
ARC
  8
104
  6
CONTINUOUS
 62
     7
 10
0.0
 20
-108.0
 30
0.0
 40
13.25
 50
180.0
 51
0.0
  0
ARC
  8
104
  6
CONTINUOUS
 62
     2
 10
-99.2
 20
-53.8
 30
0.0
 40
0.3
 50
90.0
 51
180.0
  0
ARC
  8
104
  6
CONTINUOUS
 62
     2
 10
-100.8
 20
-52.2
 30
0.0
 40
0.3
 50
270.0
 51
0.0
  0
ARC
  8
104
  6
CONTINUOUS
 62
     2
 10
-100.8
 20
-53.8
 30
0.0
 40
0.3
 50
0.0
 51
90.0
  0
ARC
  8
104
  6
CONTINUOUS
 62
     2
 10
-99.2
 20
-52.2
 30
0.0
 40
0.3
 50
180.0
 51
270.0
  0
ARC
  8
104
  6
CONTINUOUS
 62
     2
 10
-99.2
 20
60.2
 30
0.0
 40
0.3
 50
90.0
 51
180.0
  0
ARC
  8
104
  6
CONTINUOUS
 62
     2
 10
-100.8
 20
61.8
 30
0.0
 40
0.3
 50
270.0
 51
0.0
  0
ARC
  8
104
  6
CONTINUOUS
 62
     2
 10
-100.8
 20
60.2
 30
0.0
 40
0.3
 50
0.0
 51
90.0
  0
ARC
  8
104
  6
CONTINUOUS
 62
     2
 10
-99.2
 20
61.8
 30
0.0
 40
0.3
 50
180.0
 51
270.0
  0
ARC
  8
104
  6
CONTINUOUS
 62
     7
 10
-100.0
 20
-134.5
 30
0.0
 40
17.5
 50
180.0
 51
0.0
  0
ARC
  8
104
  6
CONTINUOUS
 62
     7
 10
-100.0
 20
75.5
 30
0.0
 40
17.5
 50
0.0
 51
180.0
  0
ARC
  8
104
  6
PHANTOM
 62
     1
 10
-362.5
 20
0.0
 30
0.0
 40
10.0
 50
270.0
 51
90.0
  0
ARC
  8
104
  6
CONTINUOUS
 62
     7
 10
-336.5
 20
7.95
 30
0.0
 40
1.0
 50
0.0
 51
90.0
  0
ARC
  8
104
  6
CONTINUOUS
 62
     7
 10
-336.5
 20
-7.95
 30
0.0
 40
1.0
 50
270.0
 51
0.0
  0
ARC
  8
104
  6
CONTINUOUS
 62
     7
 10
-345.55
 20
91.75
 30
0.0
 40
1.25
 50
90.0
 51
180.0
  0
ARC
  8
104
  6
CONTINUOUS
 62
     7
 10
-345.55
 20
-150.75
 30
0.0
 40
1.25
 50
180.0
 51
270.0
  0
CIRCLE
  8
104
  6
PHANTOM
 62
     1
 10
0.0
 20
-134.5
 30
0.0
 40
2.5
  0
CIRCLE
  8
104
  6
CONTINUOUS
 62
     7
 10
0.0
 20
-92.0
 30
0.0
 40
8.5
  0
CIRCLE
  8
104
  6
PHANTOM
 62
     1
 10
0.0
 20
-134.5
 30
0.0
 40
5.0
  0
CIRCLE
  8
104
  6
PHANTOM
 62
     1
 10
0.0
 20
-21.5
 30
0.0
 40
5.0
  0
CIRCLE
  8
104
  6
PHANTOM
 62
     1
 10
0.0
 20
-21.5
 30
0.0
 40
2.5
  0
CIRCLE
  8
104
  6
PHANTOM
 62
     1
 10
0.0
 20
75.5
 30
0.0
 40
5.0
  0
CIRCLE
  8
104
  6
PHANTOM
 62
     1
 10
0.0
 20
75.5
 30
0.0
 40
2.5
  0
CIRCLE
  8
104
  6
CONTINUOUS
 62
     7
 10
-100.0
 20
-53.0
 30
0.0
 40
3.75
  0
CIRCLE
  8
104
  6
CONTINUOUS
 62
     7
 10
-100.0
 20
61.0
 30
0.0
 40
3.75
  0
CIRCLE
  8
104
  6
PHANTOM
 62
     1
 10
-100.0
 20
-134.5
 30
0.0
 40
5.0
  0
CIRCLE
  8
104
  6
PHANTOM
 62
     1
 10
-100.0
 20
-134.5
 30
0.0
 40
3.2
  0
CIRCLE
  8
104
  6
PHANTOM
 62
     1
 10
-100.0
 20
-21.5
 30
0.0
 40
5.0
  0
CIRCLE
  8
104
  6
PHANTOM
 62
     1
 10
-100.0
 20
75.5
 30
0.0
 40
5.0
  0
CIRCLE
  8
104
  6
PHANTOM
 62
     1
 10
-100.0
 20
-21.5
 30
0.0
 40
3.2
  0
CIRCLE
  8
104
  6
PHANTOM
 62
     1
 10
-100.0
 20
75.5
 30
0.0
 40
3.2
  0
CIRCLE
  8
104
  6
CONTINUOUS
 62
     7
 10
-352.5
 20
0.0
 30
0.0
 40
1.72
  0
CIRCLE
  8
104
  6
CONTINUOUS
 62
     7
 10
-352.5
 20
0.0
 30
0.0
 40
3.0
  0
CIRCLE
  8
104
  6
CONTINUOUS
 62
     7
 10
40.0
 20
0.0
 30
0.0
 40
25.0
  0
ARC
  8
104
  6
PHANTOM
 62
     1
 10
-100.0
 20
0.0
 30
0.0
 40
12.0
 50
93.453799
 51
266.546201
  0
ARC
  8
104
  6
CONTINUOUS
 62
     7
 10
-100.0
 20
0.0
 30
0.0
 40
12.0
 50
266.546201
 51
93.453799
  0
ARC
  8
104
  6
CONTINUOUS
 62
     7
 10
-228.5
 20
0.0
 30
0.0
 40
10.0
 50
90.0
 51
270.0
  0
ARC
  8
104
  6
PHANTOM
 62
     1
 10
-228.5
 20
0.0
 30
0.0
 40
10.0
 50
270.0
 51
90.0
  0
ARC
  8
104
  6
PHANTOM
 62
     1
 10
0.0
 20
-134.5
 30
0.0
 40
3.0
 50
80.0
 51
10.0
  0
ARC
  8
104
  6
PHANTOM
 62
     1
 10
0.0
 20
-21.5
 30
0.0
 40
3.0
 50
80.0
 51
10.0
  0
ARC
  8
104
  6
PHANTOM
 62
     1
 10
0.0
 20
75.5
 30
0.0
 40
3.0
 50
80.0
 51
10.0
  0
ARC
  8
104
  6
CONTINUOUS
 62
     7
 10
0.0
 20
75.5
 30
0.0
 40
17.5
 50
0.0
 51
180.0
  0
ARC
  8
104
  6
CONTINUOUS
 62
     7
 10
0.0
 20
-134.5
 30
0.0
 40
17.5
 50
180.0
 51
0.0
  0
ARC
  8
104
  6
PHANTOM
 62
     1
 10
0.0
 20
-111.8
 30
0.0
 40
5.2
 50
180.0
 51
0.0
  0
ARC
  8
104
  6
PHANTOM
 62
     1
 10
0.0
 20
-92.0
 30
0.0
 40
8.7
 50
306.705431
 51
233.294569
  0
ARC
  8
104
  6
CONTINUOUS
 62
     2
 10
-100.0
 20
-53.0
 30
0.0
 40
1.2
 50
155.375682
 51
204.624318
  0
ARC
  8
104
  6
CONTINUOUS
 62
     2
 10
-100.0
 20
-53.0
 30
0.0
 40
1.2
 50
65.375682
 51
114.624318
  0
ARC
  8
104
  6
CONTINUOUS
 62
     2
 10
-100.0
 20
-53.0
 30
0.0
 40
1.2
 50
335.375682
 51
24.624318
  0
ARC
  8
104
  6
CONTINUOUS
 62
     2
 10
-100.0
 20
-53.0
 30
0.0
 40
1.2
 50
245.375682
 51
294.624318
  0
ARC
  8
104
  6
CONTINUOUS
 62
     2
 10
-100.0
 20
61.0
 30
0.0
 40
1.2
 50
155.375682
 51
204.624318
  0
ARC
  8
104
  6
CONTINUOUS
 62
     2
 10
-100.0
 20
61.0
 30
0.0
 40
1.2
 50
65.375682
 51
114.624318
  0
ARC
  8
104
  6
CONTINUOUS
 62
     2
 10
-100.0
 20
61.0
 30
0.0
 40
1.2
 50
335.375682
 51
24.624318
  0
ARC
  8
104
  6
CONTINUOUS
 62
     2
 10
-100.0
 20
61.0
 30
0.0
 40
1.2
 50
245.375682
 51
294.624318
  0
ARC
  8
104
  6
CONTINUOUS
 62
     7
 10
-100.0
 20
-111.8
 30
0.0
 40
5.2
 50
180.0
 51
0.0
  0
ARC
  8
104
  6
CONTINUOUS
 62
     7
 10
-100.0
 20
-92.0
 30
0.0
 40
8.7
 50
306.705431
 51
233.294569
  0
ARC
  8
104
  6
CONTINUOUS
 62
     7
 10
-339.636385
 20
-52.996968
 30
0.0
 40
8.0
 50
183.583322
 51
206.433465
  0
ARC
  8
104
  6
CONTINUOUS
 62
     7
 10
-339.636385
 20
-52.996968
 30
0.0
 40
8.0
 50
153.566535
 51
176.416678
  0
ARC
  8
104
  6
CONTINUOUS
 62
     7
 10
-339.636385
 20
61.003032
 30
0.0
 40
8.0
 50
183.583322
 51
206.433465
  0
ARC
  8
104
  6
CONTINUOUS
 62
     7
 10
-339.636385
 20
61.003032
 30
0.0
 40
8.0
 50
153.566535
 51
176.416678
  0
ARC
  8
104
  6
CONTINUOUS
 62
     7
 10
-392.5
 20
0.0
 30
0.0
 40
10.0
 50
93.258514
 51
266.739278
  0
ARC
  8
104
  6
PHANTOM
 62
     1
 10
-392.5
 20
0.0
 30
0.0
 40
10.0
 50
270.0
 51
90.0
  0
ARC
  8
104
  6
CONTINUOUS
 62
     1
 10
-352.5
 20
0.0
 30
0.0
 40
2.5
 50
80.0
 51
10.0
  0
ARC
  8
104
  6
CONTINUOUS
 62
     7
 10
-100.0
 20
0.0
 30
0.0
 40
12.25
 50
254.950928
 51
105.049072
  0
ARC
  8
104
  6
PHANTOM
 62
     1
 10
-100.0
 20
0.0
 30
0.0
 40
12.25
 50
105.049072
 51
254.950928
  0
ARC
  8
104
  6
PHANTOM
 62
     1
 10
0.0
 20
0.0
 30
0.0
 40
12.0
 50
286.378749
 51
73.621251
  0
ARC
  8
104
  6
PHANTOM
 62
     1
 10
0.0
 20
0.0
 30
0.0
 40
12.25
 50
290.96617
 51
69.03383
  0
ARC
  8
104
  6
CONTINUOUS
 62
     7
 10
0.0
 20
0.0
 30
0.0
 40
12.0
 50
73.621251
 51
286.378749
  0
ARC
  8
104
  6
CONTINUOUS
 62
     7
 10
0.0
 20
0.0
 30
0.0
 40
12.25
 50
69.03383
 51
290.96617
  0
ARC
  8
104
  6
CONTINUOUS
 62
     7
 10
295.037368
 20
-13.227978
 30
0.0
 40
3.06683
 50
11.13761
 51
94.238772
  0
ARC
  8
104
  6
CONTINUOUS
 62
     7
 10
313.3
 20
0.0
 30
0.0
 40
25.0
 50
204.787554
 51
155.212446
  0
ARC
  8
104
  6
PHANTOM
 62
     1
 10
313.3
 20
0.0
 30
0.0
 40
25.0
 50
155.212446
 51
204.787554
  0
ARC
  8
104
  6
CONTINUOUS
 62
     7
 10
295.037368
 20
13.227978
 30
0.0
 40
3.06683
 50
265.761228
 51
348.86239
  0
ARC
  8
104
  6
CONTINUOUS
 62
     7
 10
40.0
 20
-313.3
 30
0.0
 40
25.0
 50
165.359424
 51
104.640576
  0
ARC
  8
104
  6
CONTINUOUS
 62
     7
 10
32.417362
 20
-284.274088
 30
0.0
 40
5.0
 50
222.0
 51
284.640576
  0
ARC
  8
104
  6
CONTINUOUS
 62
     7
 10
10.974088
 20
-305.717362
 30
0.0
 40
5.0
 50
345.359424
 51
48.0
  0
ARC
  8
104
  6
CONTINUOUS
 62
     7
 10
14.05399
 20
-267.615689
 30
0.0
 40
2.5
 50
178.0
 51
222.0
  0
ARC
  8
104
  6
CONTINUOUS
 62
     7
 10
-8.691162
 20
-277.918446
 30
0.0
 40
2.5
 50
182.0
 51
228.0
  0
LINE
  8
104
  6
PHANTOM
 62
     1
 10
-96.0
 20
-4.0
 30
0.0
 11
-104.0
 21
-4.0
 31
0.0
  0
LINE
  8
104
  6
PHANTOM
 62
     1
 10
-104.0
 20
4.0
 30
0.0
 11
-96.0
 21
4.0
 31
0.0
  0
LINE
  8
104
  6
PHANTOM
 62
     1
 10
-96.0
 20
4.0
 30
0.0
 11
-96.0
 21
-4.0
 31
0.0
  0
LINE
  8
104
  6
PHANTOM
 62
     1
 10
-104.0
 20
-4.0
 30
0.0
 11
-104.0
 21
4.0
 31
0.0
  0
LINE
  8
104
  6
DOT_CENTER
 62
     1
 10
-100.0
 20
98.563041
 30
0.0
 11
-100.0
 21
-153.690505
 31
0.0
  0
LINE
  8
104
  6
CONTINUOUS
 62
     7
 10
-100.722924
 20
-11.978204
 30
0.0
 11
-133.5
 21
-10.0
 31
0.0
  0
LINE
  8
104
  6
CONTINUOUS
 62
     7
 10
-100.722924
 20
11.978204
 30
0.0
 11
-133.5
 21
10.0
 31
0.0
  0
LINE
  8
104
  6
DOT_CENTER
 62
     1
 10
-228.5
 20
-13.178575
 30
0.0
 11
-228.5
 21
12.357867
 31
0.0
  0
LINE
  8
104
  6
CONTINUOUS
 62
     7
 10
-133.5
 20
-10.0
 30
0.0
 11
-228.5
 21
-10.0
 31
0.0
  0
LINE
  8
104
  6
CONTINUOUS
 62
     7
 10
-133.5
 20
10.0
 30
0.0
 11
-228.5
 21
10.0
 31
0.0
  0
LINE
  8
104
  6
DOT_CENTER
 62
     1
 10
-86.165917
 20
0.0
 30
0.0
 11
-242.700676
 21
0.0
 31
0.0
  0
LINE
  8
104
  6
CONTINUOUS
 62
     7
 10
-116.25
 20
-246.8
 30
0.0
 11
-83.75
 21
-246.8
 31
0.0
  0
LINE
  8
104
  6
CONTINUOUS
 62
     7
 10
-112.0
 20
-257.670555
 30
0.0
 11
-112.0
 21
-247.490984
 31
0.0
  0
LINE
  8
104
  6
CONTINUOUS
 62
     7
 10
-120.991713
 20
-275.770039
 30
0.0
 11
-114.491713
 21
-265.94961
 31
0.0
  0
LINE
  8
104
  6
CONTINUOUS
 62
     7
 10
-203.5
 20
-282.490984
 30
0.0
 11
-133.5
 21
-282.490984
 31
0.0
  0
LINE
  8
104
  6
DOT_CENTER
 62
     1
 10
-228.5
 20
-267.490984
 30
0.0
 11
-228.5
 21
-248.768232
 31
0.0
  0
LINE
  8
104
  6
CONTINUOUS
 62
     7
 10
-238.5
 20
-267.490984
 30
0.0
 11
-238.5
 21
-262.490984
 31
0.0
  0
LINE
  8
104
  6
CONTINUOUS
 62
     7
 10
-218.5
 20
-262.490984
 30
0.0
 11
-218.5
 21
-267.490984
 31
0.0
  0
LINE
  8
104
  6
DOT_CENTER
 62
     1
 10
-241.363738
 20
-262.490984
 30
0.0
 11
-215.801975
 21
-262.490984
 31
0.0
  0
LINE
  8
104
  6
DOT_CENTER
 62
     1
 10
-133.5
 20
-292.490984
 30
0.0
 11
-203.5
 21
-292.490984
 31
0.0
  0
LINE
  8
104
  6
CONTINUOUS
 62
     7
 10
-133.5
 20
-302.490984
 30
0.0
 11
-203.5
 21
-302.490984
 31
0.0
  0
LINE
  8
104
  6
DOT_CENTER
 62
     1
 10
-112.652854
 20
-281.289409
 30
0.0
 11
-104.152854
 21
-268.44731
 31
0.0
  0
LINE
  8
104
  6
PHANTOM
 62
     1
 10
-104.05
 20
-265.492351
 30
0.0
 11
-95.95
 21
-265.492351
 31
0.0
  0
LINE
  8
104
  6
PHANTOM
 62
     1
 10
-104.05
 20
-235.492351
 30
0.0
 11
-104.05
 21
-265.492351
 31
0.0
  0
LINE
  8
104
  6
PHANTOM
 62
     1
 10
-95.95
 20
-265.492351
 30
0.0
 11
-95.95
 21
-235.492351
 31
0.0
  0
LINE
  8
104
  6
CONTINUOUS
 62
     7
 10
-104.313996
 20
-286.808779
 30
0.0
 11
-90.491713
 21
-265.925586
 31
0.0
  0
LINE
  8
104
  6
CONTINUOUS
 62
     7
 10
-88.0
 20
-247.490984
 30
0.0
 11
-88.0
 21
-257.646531
 31
0.0
  0
LINE
  8
104
  6
CONTINUOUS
 62
     7
 10
-112.25
 20
-247.490984
 30
0.0
 11
-87.75
 21
-247.490984
 31
0.0
  0
LINE
  8
104
  6
CONTINUOUS
 62
     7
 10
-87.75
 20
-246.8
 30
0.0
 11
-87.75
 21
-247.490984
 31
0.0
  0
LINE
  8
104
  6
CONTINUOUS
 62
     7
 10
-112.25
 20
-246.8
 30
0.0
 11
-112.25
 21
-247.490984
 31
0.0
  0
LINE
  8
104
  6
CONTINUOUS
 62
     7
 10
-112.0
 20
-237.990984
 30
0.0
 11
-112.0
 21
-239.8
 31
0.0
  0
LINE
  8
104
  6
CONTINUOUS
 62
     7
 10
-88.0
 20
-237.990984
 30
0.0
 11
-112.0
 21
-237.990984
 31
0.0
  0
LINE
  8
104
  6
CONTINUOUS
 62
     7
 10
-89.6
 20
-236.990984
 30
0.0
 11
-110.4
 21
-236.990984
 31
0.0
  0
LINE
  8
104
  6
CONTINUOUS
 62
     7
 10
-110.4
 20
-236.990984
 30
0.0
 11
-110.4
 21
-237.990984
 31
0.0
  0
LINE
  8
104
  6
CONTINUOUS
 62
     7
 10
-108.95
 20
-236.992351
 30
0.0
 11
-108.95
 21
-236.990984
 31
0.0
  0
LINE
  8
104
  6
CONTINUOUS
 62
     7
 10
-92.05
 20
-235.492351
 30
0.0
 11
-107.95
 21
-235.492351
 31
0.0
  0
LINE
  8
104
  6
CONTINUOUS
 62
     7
 10
-91.05
 20
-236.492351
 30
0.0
 11
-91.05
 21
-236.992351
 31
0.0
  0
LINE
  8
104
  6
CONTINUOUS
 62
     7
 10
-88.0
 20
-239.8
 30
0.0
 11
-88.0
 21
-237.990984
 31
0.0
  0
LINE
  8
104
  6
CONTINUOUS
 62
     7
 10
-117.5
 20
-239.8
 30
0.0
 11
-82.5
 21
-239.8
 31
0.0
  0
LINE
  8
104
  6
CONTINUOUS
 62
     7
 10
-82.5
 20
-239.8
 30
0.0
 11
-82.5
 21
-245.55
 31
0.0
  0
LINE
  8
104
  6
CONTINUOUS
 62
     7
 10
-117.5
 20
-245.55
 30
0.0
 11
-117.5
 21
-239.8
 31
0.0
  0
LINE
  8
104
  6
DOT_CENTER
 62
     1
 10
-100.0
 20
-233.651193
 30
0.0
 11
-100.0
 21
-254.648885
 31
0.0
  0
LINE
  8
104
  6
CONTINUOUS
 62
     7
 10
-89.6
 20
-237.990984
 30
0.0
 11
-89.6
 21
-236.990984
 31
0.0
  0
LINE
  8
104
  6
CONTINUOUS
 62
     7
 10
-108.95
 20
-236.992351
 30
0.0
 11
-108.95
 21
-236.492351
 31
0.0
  0
LINE
  8
104
  6
CONTINUOUS
 62
     7
 10
254.8
 20
12.0
 30
0.0
 11
254.8
 21
-12.0
 31
0.0
  0
LINE
  8
104
  6
DOT_CENTER
 62
     1
 10
240.801367
 20
0.0
 30
0.0
 11
340.3
 21
0.0
 31
0.0
  0
LINE
  8
104
  6
CONTINUOUS
 62
     7
 10
254.8
 20
11.704045
 30
0.0
 11
253.3
 21
12.25
 31
0.0
  0
LINE
  8
104
  6
CONTINUOUS
 62
     7
 10
253.3
 20
-12.25
 30
0.0
 11
254.8
 21
-11.704045
 31
0.0
  0
LINE
  8
104
  6
DOT_CENTER
 62
     1
 10
0.0
 20
-232.3
 30
0.0
 11
0.0
 21
-278.3
 31
0.0
  0
LINE
  8
104
  6
CONTINUOUS
 62
     7
 10
5.0
 20
-236.3
 30
0.0
 11
4.565583
 21
-234.678732
 31
0.0
  0
LINE
  8
104
  6
CONTINUOUS
 62
     7
 10
5.0
 20
-239.8
 30
0.0
 11
5.0
 21
-236.3
 31
0.0
  0
LINE
  8
104
  6
CONTINUOUS
 62
     7
 10
-4.565583
 20
-234.678732
 30
0.0
 11
-5.0
 21
-236.3
 31
0.0
  0
LINE
  8
104
  6
CONTINUOUS
 62
     7
 10
-5.0
 20
-236.3
 30
0.0
 11
-5.0
 21
-239.8
 31
0.0
  0
LINE
  8
104
  6
CONTINUOUS
 62
     7
 10
4.080511
 20
-234.3
 30
0.0
 11
-4.080511
 21
-234.3
 31
0.0
  0
LINE
  8
104
  6
CONTINUOUS
 62
     7
 10
-5.0
 20
-236.3
 30
0.0
 11
5.0
 21
-236.3
 31
0.0
  0
LINE
  8
104
  6
CONTINUOUS
 62
     7
 10
17.5
 20
-239.8
 30
0.0
 11
-17.5
 21
-239.8
 31
0.0
  0
LINE
  8
104
  6
CONTINUOUS
 62
     7
 10
16.25
 20
-253.3
 30
0.0
 11
-16.25
 21
-253.3
 31
0.0
  0
LINE
  8
104
  6
CONTINUOUS
 62
     7
 10
-17.5
 20
-252.05
 30
0.0
 11
-17.5
 21
-239.8
 31
0.0
  0
LINE
  8
104
  6
CONTINUOUS
 62
     7
 10
17.5
 20
-239.8
 30
0.0
 11
17.5
 21
-252.05
 31
0.0
  0
LINE
  8
104
  6
CONTINUOUS
 62
     7
 10
11.704045
 20
-254.8
 30
0.0
 11
12.25
 21
-253.3
 31
0.0
  0
LINE
  8
104
  6
CONTINUOUS
 62
     7
 10
-12.25
 20
-253.3
 30
0.0
 11
-11.704045
 21
-254.8
 31
0.0
  0
LINE
  8
104
  6
CONTINUOUS
 62
     7
 10
239.8
 20
93.0
 30
0.0
 11
252.05
 21
93.0
 31
0.0
  0
LINE
  8
104
  6
CONTINUOUS
 62
     7
 10
253.3
 20
-150.75
 30
0.0
 11
253.3
 21
91.75
 31
0.0
  0
LINE
  8
104
  6
CONTINUOUS
 62
     7
 10
239.8
 20
-152.0
 30
0.0
 11
239.8
 21
93.0
 31
0.0
  0
LINE
  8
104
  6
CONTINUOUS
 62
     7
 10
239.8
 20
80.5
 30
0.0
 11
236.3
 21
80.5
 31
0.0
  0
LINE
  8
104
  6
CONTINUOUS
 62
     7
 10
236.3
 20
80.5
 30
0.0
 11
234.678732
 21
80.065583
 31
0.0
  0
LINE
  8
104
  6
CONTINUOUS
 62
     7
 10
236.3
 20
70.5
 30
0.0
 11
236.3
 21
80.5
 31
0.0
  0
LINE
  8
104
  6
CONTINUOUS
 62
     7
 10
234.3
 20
79.580511
 30
0.0
 11
234.3
 21
71.419489
 31
0.0
  0
LINE
  8
104
  6
PHANTOM
 62
     1
 10
245.3
 20
78.5
 30
0.0
 11
234.3
 21
78.5
 31
0.0
  0
LINE
  8
104
  6
PHANTOM
 62
     1
 10
247.8
 20
78.0
 30
0.0
 11
234.3
 21
78.0
 31
0.0
  0
LINE
  8
104
  6
PHANTOM
 62
     1
 10
245.3
 20
73.000001
 30
0.0
 11
245.3
 21
78.499999
 31
0.0
  0
LINE
  8
104
  6
PHANTOM
 62
     1
 10
247.8
 20
73.0
 30
0.0
 11
247.8
 21
77.999999
 31
0.0
  0
LINE
  8
104
  6
PHANTOM
 62
     1
 10
247.8
 20
78.0
 30
0.0
 11
249.25
 21
75.5
 31
0.0
  0
LINE
  8
104
  6
DOT_CENTER
 62
     1
 10
232.3
 20
75.5
 30
0.0
 11
250.793611
 21
75.5
 31
0.0
  0
LINE
  8
104
  6
PHANTOM
 62
     1
 10
249.25
 20
75.5
 30
0.0
 11
247.8
 21
73.0
 31
0.0
  0
LINE
  8
104
  6
PHANTOM
 62
     1
 10
247.8
 20
73.0
 30
0.0
 11
234.3
 21
73.0
 31
0.0
  0
LINE
  8
104
  6
PHANTOM
 62
     1
 10
234.3
 20
72.5
 30
0.0
 11
245.3
 21
72.5
 31
0.0
  0
LINE
  8
104
  6
CONTINUOUS
 62
     7
 10
236.3
 20
70.5
 30
0.0
 11
239.8
 21
70.5
 31
0.0
  0
LINE
  8
104
  6
CONTINUOUS
 62
     7
 10
234.678732
 20
70.934417
 30
0.0
 11
236.3
 21
70.5
 31
0.0
  0
LINE
  8
104
  6
PHANTOM
 62
     1
 10
240.3
 20
-83.3
 30
0.0
 11
247.8
 21
-83.3
 31
0.0
  0
LINE
  8
104
  6
PHANTOM
 62
     1
 10
240.3
 20
-98.974955
 30
0.0
 11
247.8
 21
-98.974955
 31
0.0
  0
LINE
  8
104
  6
PHANTOM
 62
     1
 10
248.8
 20
-75.75
 30
0.0
 11
248.8
 21
-79.0
 31
0.0
  0
LINE
  8
104
  6
PHANTOM
 62
     1
 10
239.8
 20
-75.75
 30
0.0
 11
248.8
 21
-75.75
 31
0.0
  0
LINE
  8
104
  6
PHANTOM
 62
     1
 10
240.3
 20
-124.0
 30
0.0
 11
240.3
 21
-76.0
 31
0.0
  0
LINE
  8
104
  6
PHANTOM
 62
     1
 10
240.3
 20
-76.0
 30
0.0
 11
241.8
 21
-76.0
 31
0.0
  0
LINE
  8
104
  6
PHANTOM
 62
     1
 10
241.8
 20
-79.0
 30
0.0
 11
252.3
 21
-79.0
 31
0.0
  0
LINE
  8
104
  6
CONTINUOUS
 62
     7
 10
253.8
 20
-119.5
 30
0.0
 11
253.8
 21
-80.5
 31
0.0
  0
LINE
  8
104
  6
PHANTOM
 62
     1
 10
252.3
 20
-121.0
 30
0.0
 11
241.8
 21
-121.0
 31
0.0
  0
LINE
  8
104
  6
PHANTOM
 62
     1
 10
248.8
 20
-121.0
 30
0.0
 11
248.8
 21
-124.25
 31
0.0
  0
LINE
  8
104
  6
PHANTOM
 62
     1
 10
239.8
 20
-124.25
 30
0.0
 11
248.8
 21
-124.25
 31
0.0
  0
LINE
  8
104
  6
PHANTOM
 62
     1
 10
240.3
 20
-117.0
 30
0.0
 11
247.8
 21
-117.0
 31
0.0
  0
LINE
  8
104
  6
PHANTOM
 62
     1
 10
247.8
 20
-117.0
 30
0.0
 11
247.8
 21
-83.3
 31
0.0
  0
LINE
  8
104
  6
PHANTOM
 62
     1
 10
241.8
 20
-124.0
 30
0.0
 11
240.3
 21
-124.0
 31
0.0
  0
LINE
  8
104
  6
CONTINUOUS
 62
     7
 10
252.05
 20
-152.0
 30
0.0
 11
239.8
 21
-152.0
 31
0.0
  0
LINE
  8
104
  6
PHANTOM
 62
     1
 10
241.8
 20
-124.0
 30
0.0
 11
241.8
 21
-76.0
 31
0.0
  0
LINE
  8
104
  6
DOT_CENTER
 62
     1
 10
238.8
 20
-111.8
 30
0.0
 11
248.676728
 21
-111.8
 31
0.0
  0
LINE
  8
104
  6
DOT_CENTER
 62
     1
 10
254.651881
 20
-92.0
 30
0.0
 11
238.8
 21
-92.0
 31
0.0
  0
LINE
  8
104
  6
CONTINUOUS
 62
     7
 10
239.8
 20
-16.5
 30
0.0
 11
236.3
 21
-16.5
 31
0.0
  0
LINE
  8
104
  6
CONTINUOUS
 62
     7
 10
236.3
 20
-16.5
 30
0.0
 11
234.678732
 21
-16.934417
 31
0.0
  0
LINE
  8
104
  6
CONTINUOUS
 62
     7
 10
236.3
 20
-26.5
 30
0.0
 11
236.3
 21
-16.5
 31
0.0
  0
LINE
  8
104
  6
CONTINUOUS
 62
     7
 10
234.3
 20
-17.419489
 30
0.0
 11
234.3
 21
-25.580511
 31
0.0
  0
LINE
  8
104
  6
PHANTOM
 62
     1
 10
245.3
 20
-18.5
 30
0.0
 11
234.3
 21
-18.5
 31
0.0
  0
LINE
  8
104
  6
PHANTOM
 62
     1
 10
247.8
 20
-19.0
 30
0.0
 11
234.3
 21
-19.0
 31
0.0
  0
LINE
  8
104
  6
PHANTOM
 62
     1
 10
245.3
 20
-23.999999
 30
0.0
 11
245.3
 21
-18.500001
 31
0.0
  0
LINE
  8
104
  6
PHANTOM
 62
     1
 10
247.8
 20
-24.0
 30
0.0
 11
247.8
 21
-19.000001
 31
0.0
  0
LINE
  8
104
  6
PHANTOM
 62
     1
 10
247.8
 20
-19.0
 30
0.0
 11
249.25
 21
-21.5
 31
0.0
  0
LINE
  8
104
  6
DOT_CENTER
 62
     1
 10
232.3
 20
-21.5
 30
0.0
 11
250.793611
 21
-21.5
 31
0.0
  0
LINE
  8
104
  6
PHANTOM
 62
     1
 10
249.25
 20
-21.5
 30
0.0
 11
247.8
 21
-24.0
 31
0.0
  0
LINE
  8
104
  6
PHANTOM
 62
     1
 10
247.8
 20
-24.0
 30
0.0
 11
234.3
 21
-24.0
 31
0.0
  0
LINE
  8
104
  6
PHANTOM
 62
     1
 10
234.3
 20
-24.5
 30
0.0
 11
245.3
 21
-24.5
 31
0.0
  0
LINE
  8
104
  6
CONTINUOUS
 62
     7
 10
236.3
 20
-26.5
 30
0.0
 11
239.8
 21
-26.5
 31
0.0
  0
LINE
  8
104
  6
CONTINUOUS
 62
     7
 10
234.678732
 20
-26.065583
 30
0.0
 11
236.3
 21
-26.5
 31
0.0
  0
LINE
  8
104
  6
CONTINUOUS
 62
     7
 10
239.8
 20
-129.5
 30
0.0
 11
236.3
 21
-129.5
 31
0.0
  0
LINE
  8
104
  6
CONTINUOUS
 62
     7
 10
236.3
 20
-129.5
 30
0.0
 11
234.678732
 21
-129.934417
 31
0.0
  0
LINE
  8
104
  6
CONTINUOUS
 62
     7
 10
236.3
 20
-139.5
 30
0.0
 11
236.3
 21
-129.5
 31
0.0
  0
LINE
  8
104
  6
CONTINUOUS
 62
     7
 10
234.3
 20
-130.419489
 30
0.0
 11
234.3
 21
-138.580511
 31
0.0
  0
LINE
  8
104
  6
PHANTOM
 62
     1
 10
245.3
 20
-131.5
 30
0.0
 11
234.3
 21
-131.5
 31
0.0
  0
LINE
  8
104
  6
PHANTOM
 62
     1
 10
247.8
 20
-132.0
 30
0.0
 11
234.3
 21
-132.0
 31
0.0
  0
LINE
  8
104
  6
PHANTOM
 62
     1
 10
245.3
 20
-136.999999
 30
0.0
 11
245.3
 21
-131.500001
 31
0.0
  0
LINE
  8
104
  6
PHANTOM
 62
     1
 10
247.8
 20
-137.0
 30
0.0
 11
247.8
 21
-132.000001
 31
0.0
  0
LINE
  8
104
  6
PHANTOM
 62
     1
 10
247.8
 20
-132.0
 30
0.0
 11
249.25
 21
-134.5
 31
0.0
  0
LINE
  8
104
  6
DOT_CENTER
 62
     1
 10
232.3
 20
-134.5
 30
0.0
 11
250.793611
 21
-134.5
 31
0.0
  0
LINE
  8
104
  6
PHANTOM
 62
     1
 10
249.25
 20
-134.5
 30
0.0
 11
247.8
 21
-137.0
 31
0.0
  0
LINE
  8
104
  6
PHANTOM
 62
     1
 10
247.8
 20
-137.0
 30
0.0
 11
234.3
 21
-137.0
 31
0.0
  0
LINE
  8
104
  6
PHANTOM
 62
     1
 10
234.3
 20
-137.5
 30
0.0
 11
245.3
 21
-137.5
 31
0.0
  0
LINE
  8
104
  6
CONTINUOUS
 62
     7
 10
236.3
 20
-139.5
 30
0.0
 11
239.8
 21
-139.5
 31
0.0
  0
LINE
  8
104
  6
CONTINUOUS
 62
     7
 10
234.678732
 20
-139.065583
 30
0.0
 11
236.3
 21
-139.5
 31
0.0
  0
LINE
  8
104
  6
DOT_CENTER
 62
     1
 10
-9.25
 20
-21.5
 30
0.0
 11
9.25
 21
-21.5
 31
0.0
  0
LINE
  8
104
  6
CONTINUOUS
 62
     7
 10
2.5
 20
-97.5
 30
0.0
 11
2.5
 21
-86.5
 31
0.0
  0
LINE
  8
104
  6
DOT_CENTER
 62
     1
 10
19.025698
 20
-92.0
 30
0.0
 11
-19.0
 21
-92.0
 31
0.0
  0
LINE
  8
104
  6
CONTINUOUS
 62
     7
 10
-2.5
 20
-86.5
 30
0.0
 11
-2.5
 21
-97.5
 31
0.0
  0
LINE
  8
104
  6
DOT_CENTER
 62
     1
 10
-9.25
 20
-134.5
 30
0.0
 11
9.25
 21
-134.5
 31
0.0
  0
LINE
  8
104
  6
DOT_CENTER
 62
     1
 10
-9.25
 20
75.5
 30
0.0
 11
9.25
 21
75.5
 31
0.0
  0
LINE
  8
104
  6
CONTINUOUS
 62
     7
 10
-13.25
 20
-108.0
 30
0.0
 11
-13.25
 21
-92.0
 31
0.0
  0
LINE
  8
104
  6
CONTINUOUS
 62
     7
 10
13.25
 20
-92.0
 30
0.0
 11
13.25
 21
-108.0
 31
0.0
  0
LINE
  8
104
  6
DOT_CENTER
 62
     1
 10
0.0
 20
-154.0
 30
0.0
 11
0.0
 21
95.0
 31
0.0
  0
LINE
  8
104
  6
CONTINUOUS
 62
     7
 10
-17.5
 20
75.5
 30
0.0
 11
-17.5
 21
-134.5
 31
0.0
  0
LINE
  8
104
  6
CONTINUOUS
 62
     7
 10
17.5
 20
10.897247
 30
0.0
 11
17.5
 21
75.5
 31
0.0
  0
LINE
  8
104
  6
CONTINUOUS
 62
     7
 10
17.5
 20
-134.5
 30
0.0
 11
17.5
 21
-10.897247
 31
0.0
  0
LINE
  8
104
  6
PHANTOM
 62
     1
 10
17.5
 20
-10.897247
 30
0.0
 11
17.5
 21
10.897247
 31
0.0
  0
LINE
  8
104
  6
DOT_CENTER
 62
     1
 10
-7.2
 20
-111.8
 30
0.0
 11
7.2
 21
-111.8
 31
0.0
  0
LINE
  8
104
  6
PHANTOM
 62
     1
 10
-5.2
 20
-98.974955
 30
0.0
 11
-5.2
 21
-111.8
 31
0.0
  0
LINE
  8
104
  6
PHANTOM
 62
     1
 10
5.2
 20
-111.8
 30
0.0
 11
5.2
 21
-98.974955
 31
0.0
  0
LINE
  8
104
  6
CONTINUOUS
 62
     2
 10
-100.5
 20
-50.75
 30
0.0
 11
-99.5
 21
-50.75
 31
0.0
  0
LINE
  8
104
  6
CONTINUOUS
 62
     2
 10
-97.75
 20
-52.5
 30
0.0
 11
-97.75
 21
-53.5
 31
0.0
  0
LINE
  8
104
  6
CONTINUOUS
 62
     2
 10
-99.5
 20
-55.25
 30
0.0
 11
-100.5
 21
-55.25
 31
0.0
  0
LINE
  8
104
  6
CONTINUOUS
 62
     2
 10
-102.25
 20
-53.5
 30
0.0
 11
-102.25
 21
-52.5
 31
0.0
  0
LINE
  8
104
  6
CONTINUOUS
 62
     2
 10
-99.5
 20
-50.75
 30
0.0
 11
-99.5
 21
-52.2
 31
0.0
  0
LINE
  8
104
  6
CONTINUOUS
 62
     2
 10
-99.2
 20
-52.5
 30
0.0
 11
-97.75
 21
-52.5
 31
0.0
  0
LINE
  8
104
  6
CONTINUOUS
 62
     2
 10
-97.75
 20
-53.5
 30
0.0
 11
-99.2
 21
-53.5
 31
0.0
  0
LINE
  8
104
  6
CONTINUOUS
 62
     2
 10
-99.5
 20
-53.8
 30
0.0
 11
-99.5
 21
-55.25
 31
0.0
  0
LINE
  8
104
  6
CONTINUOUS
 62
     2
 10
-100.5
 20
-55.25
 30
0.0
 11
-100.5
 21
-53.8
 31
0.0
  0
LINE
  8
104
  6
CONTINUOUS
 62
     2
 10
-100.8
 20
-53.5
 30
0.0
 11
-102.25
 21
-53.5
 31
0.0
  0
LINE
  8
104
  6
CONTINUOUS
 62
     2
 10
-100.5
 20
-50.75
 30
0.0
 11
-100.5
 21
-52.2
 31
0.0
  0
LINE
  8
104
  6
CONTINUOUS
 62
     2
 10
-100.8
 20
-52.5
 30
0.0
 11
-102.25
 21
-52.5
 31
0.0
  0
LINE
  8
104
  6
CONTINUOUS
 62
     2
 10
-100.5
 20
63.25
 30
0.0
 11
-99.5
 21
63.25
 31
0.0
  0
LINE
  8
104
  6
CONTINUOUS
 62
     2
 10
-97.75
 20
61.5
 30
0.0
 11
-97.75
 21
60.5
 31
0.0
  0
LINE
  8
104
  6
CONTINUOUS
 62
     2
 10
-99.5
 20
58.75
 30
0.0
 11
-100.5
 21
58.75
 31
0.0
  0
LINE
  8
104
  6
CONTINUOUS
 62
     2
 10
-102.25
 20
60.5
 30
0.0
 11
-102.25
 21
61.5
 31
0.0
  0
LINE
  8
104
  6
CONTINUOUS
 62
     2
 10
-99.5
 20
63.25
 30
0.0
 11
-99.5
 21
61.8
 31
0.0
  0
LINE
  8
104
  6
CONTINUOUS
 62
     2
 10
-99.2
 20
61.5
 30
0.0
 11
-97.75
 21
61.5
 31
0.0
  0
LINE
  8
104
  6
CONTINUOUS
 62
     2
 10
-97.75
 20
60.5
 30
0.0
 11
-99.2
 21
60.5
 31
0.0
  0
LINE
  8
104
  6
CONTINUOUS
 62
     2
 10
-99.5
 20
60.2
 30
0.0
 11
-99.5
 21
58.75
 31
0.0
  0
LINE
  8
104
  6
CONTINUOUS
 62
     2
 10
-100.5
 20
58.75
 30
0.0
 11
-100.5
 21
60.2
 31
0.0
  0
LINE
  8
104
  6
CONTINUOUS
 62
     2
 10
-100.8
 20
60.5
 30
0.0
 11
-102.25
 21
60.5
 31
0.0
  0
LINE
  8
104
  6
CONTINUOUS
 62
     2
 10
-100.5
 20
63.25
 30
0.0
 11
-100.5
 21
61.8
 31
0.0
  0
LINE
  8
104
  6
CONTINUOUS
 62
     2
 10
-100.8
 20
61.5
 30
0.0
 11
-102.25
 21
61.5
 31
0.0
  0
LINE
  8
104
  6
DOT_CENTER
 62
     1
 10
-107.785747
 20
-134.5
 30
0.0
 11
-92.20475
 21
-134.5
 31
0.0
  0
LINE
  8
104
  6
DOT_CENTER
 62
     1
 10
-107.785747
 20
-21.5
 30
0.0
 11
-92.20475
 21
-21.5
 31
0.0
  0
LINE
  8
104
  6
DOT_CENTER
 62
     1
 10
-107.785747
 20
75.5
 30
0.0
 11
-92.20475
 21
75.5
 31
0.0
  0
LINE
  8
104
  6
DOT_CENTER
 62
     1
 10
-105.78213
 20
-53.0
 30
0.0
 11
-94.409832
 21
-53.0
 31
0.0
  0
LINE
  8
104
  6
DOT_CENTER
 62
     1
 10
-106.738935
 20
61.0
 30
0.0
 11
-93.771962
 21
61.0
 31
0.0
  0
LINE
  8
104
  6
DOT_CENTER
 62
     1
 10
-110.7
 20
-92.0
 30
0.0
 11
-89.3
 21
-92.0
 31
0.0
  0
LINE
  8
104
  6
DOT_CENTER
 62
     1
 10
-107.2
 20
-111.8
 30
0.0
 11
-92.8
 21
-111.8
 31
0.0
  0
LINE
  8
104
  6
CONTINUOUS
 62
     7
 10
-105.2
 20
-98.974955
 30
0.0
 11
-105.2
 21
-111.8
 31
0.0
  0
LINE
  8
104
  6
CONTINUOUS
 62
     7
 10
-94.8
 20
-111.8
 30
0.0
 11
-94.8
 21
-98.974955
 31
0.0
  0
LINE
  8
104
  6
CONTINUOUS
 62
     7
 10
-82.5
 20
-134.5
 30
0.0
 11
-82.5
 21
75.5
 31
0.0
  0
LINE
  8
104
  6
CONTINUOUS
 62
     7
 10
-117.5
 20
-10.965653
 30
0.0
 11
-117.5
 21
-134.5
 31
0.0
  0
LINE
  8
104
  6
CONTINUOUS
 62
     7
 10
-117.5
 20
75.5
 30
0.0
 11
-117.5
 21
10.965653
 31
0.0
  0
LINE
  8
104
  6
PHANTOM
 62
     1
 10
-117.5
 20
-10.965653
 30
0.0
 11
-117.5
 21
10.965653
 31
0.0
  0
LINE
  8
104
  6
PHANTOM
 62
     1
 10
-341.8
 20
-139.2
 30
0.0
 11
-341.8
 21
-129.8
 31
0.0
  0
LINE
  8
104
  6
PHANTOM
 62
     1
 10
-340.3
 20
-137.7
 30
0.0
 11
-340.3
 21
-131.3
 31
0.0
  0
LINE
  8
104
  6
PHANTOM
 62
     1
 10
-341.8
 20
-139.2
 30
0.0
 11
-340.3
 21
-137.7
 31
0.0
  0
LINE
  8
104
  6
PHANTOM
 62
     1
 10
-340.3
 20
-137.7
 30
0.0
 11
-336.8
 21
-137.7
 31
0.0
  0
LINE
  8
104
  6
CONTINUOUS
 62
     7
 10
-336.8
 20
-139.5
 30
0.0
 11
-339.8
 21
-139.5
 31
0.0
  0
LINE
  8
104
  6
CONTINUOUS
 62
     7
 10
-339.8
 20
-129.5
 30
0.0
 11
-336.8
 21
-129.5
 31
0.0
  0
LINE
  8
104
  6
CONTINUOUS
 62
     7
 10
-336.8
 20
-129.5
 30
0.0
 11
-336.8
 21
-139.5
 31
0.0
  0
LINE
  8
104
  6
PHANTOM
 62
     1
 10
-336.8
 20
-131.3
 30
0.0
 11
-340.3
 21
-131.3
 31
0.0
  0
LINE
  8
104
  6
PHANTOM
 62
     1
 10
-340.3
 20
-131.3
 30
0.0
 11
-341.8
 21
-129.8
 31
0.0
  0
LINE
  8
104
  6
DOT_CENTER
 62
     1
 10
-344.254447
 20
-134.5
 30
0.0
 11
-334.8
 21
-134.5
 31
0.0
  0
LINE
  8
104
  6
PHANTOM
 62
     1
 10
-341.8
 20
-26.2
 30
0.0
 11
-341.8
 21
-16.8
 31
0.0
  0
LINE
  8
104
  6
PHANTOM
 62
     1
 10
-340.3
 20
-24.7
 30
0.0
 11
-340.3
 21
-18.3
 31
0.0
  0
LINE
  8
104
  6
PHANTOM
 62
     1
 10
-341.8
 20
-26.2
 30
0.0
 11
-340.3
 21
-24.7
 31
0.0
  0
LINE
  8
104
  6
PHANTOM
 62
     1
 10
-340.3
 20
-24.7
 30
0.0
 11
-336.8
 21
-24.7
 31
0.0
  0
LINE
  8
104
  6
CONTINUOUS
 62
     7
 10
-336.8
 20
-26.5
 30
0.0
 11
-339.8
 21
-26.5
 31
0.0
  0
LINE
  8
104
  6
CONTINUOUS
 62
     7
 10
-339.8
 20
-16.5
 30
0.0
 11
-336.8
 21
-16.5
 31
0.0
  0
LINE
  8
104
  6
CONTINUOUS
 62
     7
 10
-336.8
 20
-16.5
 30
0.0
 11
-336.8
 21
-26.5
 31
0.0
  0
LINE
  8
104
  6
PHANTOM
 62
     1
 10
-336.8
 20
-18.3
 30
0.0
 11
-340.3
 21
-18.3
 31
0.0
  0
LINE
  8
104
  6
PHANTOM
 62
     1
 10
-340.3
 20
-18.3
 30
0.0
 11
-341.8
 21
-16.8
 31
0.0
  0
LINE
  8
104
  6
DOT_CENTER
 62
     1
 10
-344.254447
 20
-21.5
 30
0.0
 11
-334.8
 21
-21.5
 31
0.0
  0
LINE
  8
104
  6
PHANTOM
 62
     1
 10
-341.8
 20
70.8
 30
0.0
 11
-341.8
 21
80.2
 31
0.0
  0
LINE
  8
104
  6
PHANTOM
 62
     1
 10
-340.3
 20
72.3
 30
0.0
 11
-340.3
 21
78.7
 31
0.0
  0
LINE
  8
104
  6
CONTINUOUS
 62
     7
 10
-347.620744
 20
-53.496968
 30
0.0
 11
-346.8
 21
-53.496968
 31
0.0
  0
LINE
  8
104
  6
CONTINUOUS
 62
     7
 10
-346.8
 20
-52.496968
 30
0.0
 11
-347.620744
 21
-52.496968
 31
0.0
  0
LINE
  8
104
  6
CONTINUOUS
 62
     7
 10
-347.620744
 20
60.503032
 30
0.0
 11
-346.8
 21
60.503032
 31
0.0
  0
LINE
  8
104
  6
CONTINUOUS
 62
     7
 10
-346.8
 20
61.503032
 30
0.0
 11
-347.620744
 21
61.503032
 31
0.0
  0
LINE
  8
104
  6
CONTINUOUS
 62
     7
 10
-339.8
 20
-12.0
 30
0.0
 11
-338.0
 21
-12.0
 31
0.0
  0
LINE
  8
104
  6
CONTINUOUS
 62
     7
 10
-338.0
 20
12.0
 30
0.0
 11
-339.8
 21
12.0
 31
0.0
  0
LINE
  8
104
  6
CONTINUOUS
 62
     7
 10
-338.0
 20
-12.0
 30
0.0
 11
-338.0
 21
12.0
 31
0.0
  0
LINE
  8
104
  6
CONTINUOUS
 62
     7
 10
-337.0
 20
10.4
 30
0.0
 11
-338.0
 21
10.4
 31
0.0
  0
LINE
  8
104
  6
CONTINUOUS
 62
     7
 10
-338.0
 20
-10.4
 30
0.0
 11
-337.0
 21
-10.4
 31
0.0
  0
LINE
  8
104
  6
CONTINUOUS
 62
     7
 10
-337.0
 20
-10.4
 30
0.0
 11
-337.0
 21
10.4
 31
0.0
  0
LINE
  8
104
  6
CONTINUOUS
 62
     7
 10
-357.655547
 20
12.0
 30
0.0
 11
-393.068412
 21
9.983832
 31
0.0
  0
LINE
  8
104
  6
DOT_CENTER
 62
     1
 10
-392.5
 20
12.899917
 30
0.0
 11
-392.5
 21
-12.745662
 31
0.0
  0
LINE
  8
104
  6
PHANTOM
 62
     1
 10
-335.5
 20
4.05
 30
0.0
 11
-365.5
 21
4.05
 31
0.0
  0
LINE
  8
104
  6
PHANTOM
 62
     1
 10
-365.5
 20
4.05
 30
0.0
 11
-365.5
 21
-4.05
 31
0.0
  0
LINE
  8
104
  6
PHANTOM
 62
     1
 10
-335.5
 20
-4.05
 30
0.0
 11
-365.5
 21
-4.05
 31
0.0
  0
LINE
  8
104
  6
DOT_CENTER
 62
     1
 10
-405.606837
 20
0.0
 30
0.0
 11
-333.5
 21
0.0
 31
0.0
  0
LINE
  8
104
  6
CONTINUOUS
 62
     7
 10
-353.978903
 20
-0.878206
 30
0.0
 11
-352.521097
 21
-1.719871
 31
0.0
  0
LINE
  8
104
  6
CONTINUOUS
 62
     7
 10
-352.478903
 20
-1.719871
 30
0.0
 11
-351.021097
 21
-0.878206
 31
0.0
  0
LINE
  8
104
  6
CONTINUOUS
 62
     7
 10
-351.0
 20
-0.841665
 30
0.0
 11
-351.0
 21
0.841665
 31
0.0
  0
LINE
  8
104
  6
CONTINUOUS
 62
     7
 10
-351.021097
 20
0.878206
 30
0.0
 11
-352.478903
 21
1.719871
 31
0.0
  0
LINE
  8
104
  6
CONTINUOUS
 62
     7
 10
-352.521097
 20
1.719871
 30
0.0
 11
-353.978903
 21
0.878206
 31
0.0
  0
LINE
  8
104
  6
CONTINUOUS
 62
     7
 10
-354.0
 20
0.841665
 30
0.0
 11
-354.0
 21
-0.841665
 31
0.0
  0
LINE
  8
104
  6
DOT_CENTER
 62
     1
 10
-352.5
 20
-3.6
 30
0.0
 11
-352.5
 21
3.6
 31
0.0
  0
LINE
  8
104
  6
PHANTOM
 62
     1
 10
-392.5
 20
10.0
 30
0.0
 11
-362.5
 21
10.0
 31
0.0
  0
LINE
  8
104
  6
PHANTOM
 62
     1
 10
-362.5
 20
-10.0
 30
0.0
 11
-392.784628
 21
-10.0
 31
0.0
  0
LINE
  8
104
  6
CONTINUOUS
 62
     7
 10
-393.068796
 20
-9.98381
 30
0.0
 11
-357.679571
 21
-12.0
 31
0.0
  0
LINE
  8
104
  6
CONTINUOUS
 62
     7
 10
-357.679571
 20
-12.0
 30
0.0
 11
-347.5
 21
-12.0
 31
0.0
  0
LINE
  8
104
  6
CONTINUOUS
 62
     7
 10
-357.655547
 20
12.0
 30
0.0
 11
-347.5
 21
12.0
 31
0.0
  0
LINE
  8
104
  6
CONTINUOUS
 62
     7
 10
-347.5
 20
-12.25
 30
0.0
 11
-347.5
 21
12.25
 31
0.0
  0
LINE
  8
104
  6
CONTINUOUS
 62
     7
 10
-337.0
 20
8.95
 30
0.0
 11
-336.5
 21
8.95
 31
0.0
  0
LINE
  8
104
  6
CONTINUOUS
 62
     7
 10
-336.5
 20
-8.95
 30
0.0
 11
-337.0
 21
-8.95
 31
0.0
  0
LINE
  8
104
  6
CONTINUOUS
 62
     7
 10
-335.5
 20
-7.95
 30
0.0
 11
-335.5
 21
7.95
 31
0.0
  0
LINE
  8
104
  6
CONTINUOUS
 62
     7
 10
-347.5
 20
-12.25
 30
0.0
 11
-346.8
 21
-12.25
 31
0.0
  0
LINE
  8
104
  6
CONTINUOUS
 62
     7
 10
-347.5
 20
12.25
 30
0.0
 11
-346.8
 21
12.25
 31
0.0
  0
LINE
  8
104
  6
PHANTOM
 62
     1
 10
-341.8
 20
70.8
 30
0.0
 11
-340.3
 21
72.3
 31
0.0
  0
LINE
  8
104
  6
PHANTOM
 62
     1
 10
-340.3
 20
72.3
 30
0.0
 11
-336.8
 21
72.3
 31
0.0
  0
LINE
  8
104
  6
CONTINUOUS
 62
     7
 10
-336.8
 20
70.5
 30
0.0
 11
-339.8
 21
70.5
 31
0.0
  0
LINE
  8
104
  6
CONTINUOUS
 62
     7
 10
-339.8
 20
80.5
 30
0.0
 11
-336.8
 21
80.5
 31
0.0
  0
LINE
  8
104
  6
CONTINUOUS
 62
     7
 10
-336.8
 20
80.5
 30
0.0
 11
-336.8
 21
70.5
 31
0.0
  0
LINE
  8
104
  6
PHANTOM
 62
     1
 10
-336.8
 20
78.7
 30
0.0
 11
-340.3
 21
78.7
 31
0.0
  0
LINE
  8
104
  6
PHANTOM
 62
     1
 10
-340.3
 20
78.7
 30
0.0
 11
-341.8
 21
80.2
 31
0.0
  0
LINE
  8
104
  6
DOT_CENTER
 62
     1
 10
-344.254447
 20
75.5
 30
0.0
 11
-334.8
 21
75.5
 31
0.0
  0
LINE
  8
104
  6
CONTINUOUS
 62
     7
 10
-339.8
 20
93.0
 30
0.0
 11
-339.8
 21
-152.0
 31
0.0
  0
LINE
  8
104
  6
CONTINUOUS
 62
     7
 10
-345.55
 20
93.0
 30
0.0
 11
-339.8
 21
93.0
 31
0.0
  0
LINE
  8
104
  6
CONTINUOUS
 62
     7
 10
-339.8
 20
-152.0
 30
0.0
 11
-345.55
 21
-152.0
 31
0.0
  0
LINE
  8
104
  6
CONTINUOUS
 62
     7
 10
-346.8
 20
-150.75
 30
0.0
 11
-346.8
 21
91.75
 31
0.0
  0
LINE
  8
104
  6
CONTINUOUS
 62
     7
 10
17.303286
 20
10.481372
 30
0.0
 11
0.0
 21
11.763819
 31
0.0
  0
LINE
  8
104
  6
CONTINUOUS
 62
     7
 10
0.0
 20
-11.763819
 30
0.0
 11
17.303286
 21
-10.481372
 31
0.0
  0
LINE
  8
104
  6
DOT_CENTER
 62
     1
 10
40.0
 20
-27.0
 30
0.0
 11
40.0
 21
27.0
 31
0.0
  0
LINE
  8
104
  6
CONTINUOUS
 62
     7
 10
273.3
 20
11.763819
 30
0.0
 11
294.810689
 21
10.169537
 31
0.0
  0
LINE
  8
104
  6
CONTINUOUS
 62
     7
 10
273.3
 20
11.763819
 30
0.0
 11
254.8
 21
12.0
 31
0.0
  0
LINE
  8
104
  6
CONTINUOUS
 62
     7
 10
254.8
 20
-12.0
 30
0.0
 11
273.3
 21
-11.763819
 31
0.0
  0
LINE
  8
104
  6
CONTINUOUS
 62
     7
 10
294.810689
 20
-10.169537
 30
0.0
 11
273.3
 21
-11.763819
 31
0.0
  0
LINE
  8
104
  6
DOT_CENTER
 62
     1
 10
313.3
 20
27.0
 30
0.0
 11
313.3
 21
-27.0
 31
0.0
  0
LINE
  8
104
  6
DOT_CENTER
 62
     1
 10
67.0
 20
0.0
 30
0.0
 11
-13.834083
 21
0.0
 31
0.0
  0
LINE
  8
104
  6
CONTINUOUS
 62
     1
 10
16.72708
 20
-304.169216
 30
0.0
 11
30.869216
 21
-290.02708
 31
0.0
  0
LINE
  8
104
  6
CONTINUOUS
 62
     7
 10
12.196128
 20
-269.288515
 30
0.0
 11
28.701637
 21
-287.619741
 31
0.0
  0
LINE
  8
104
  6
DOT_CENTER
 62
     1
 10
40.0
 20
-340.3
 30
0.0
 11
40.0
 21
-286.3
 31
0.0
  0
LINE
  8
104
  6
DOT_CENTER
 62
     1
 10
67.0
 20
-313.3
 30
0.0
 11
13.0
 21
-313.3
 31
0.0
  0
LINE
  8
104
  6
CONTINUOUS
 62
     7
 10
12.0
 20
-254.8
 30
0.0
 11
-12.0
 21
-254.8
 31
0.0
  0
LINE
  8
104
  6
CONTINUOUS
 62
     7
 10
11.555513
 20
-267.52844
 30
0.0
 11
12.0
 21
-254.8
 31
0.0
  0
LINE
  8
104
  6
CONTINUOUS
 62
     7
 10
-12.0
 20
-254.8
 30
0.0
 11
-11.189639
 21
-278.005694
 31
0.0
  0
LINE
  8
104
  6
CONTINUOUS
 62
     7
 10
-10.363989
 20
-279.776308
 30
0.0
 11
14.319741
 21
-302.001637
 31
0.0
  0
LINE
  8
104
  6
DOT_CENTER
 62
     1
 10
59.091883
 20
-332.391883
 30
0.0
 11
3.033795
 21
-276.333795
 31
0.0
  0
INSERT
  8
0
  2
_G_T_1
 10
0.0
 20
0.0
 30
0.0
  0
ENDSEC
  0
EOF
