  0
SECTION
  2
HEADER
  9
$ACADVER
  1
AC1006
  9
$DWGCODEPAGE
  3
ansi_1252
  9
$INSBASE
 10
0.0
 20
0.0
 30
0.0
  9
$EXTMIN
 10
0.0
 20
0.0
  9
$EXTMAX
 10
100.0
 20
100.0
  9
$LIMMIN
 10
0.0
 20
0.0
  9
$LIMMAX
 10
100.0
 20
100.0
  9
$VIEWCTR
 10
6.591288
 20
4.579184
  9
$VIEWSIZE
 40
9.158369
  9
$SNAPMODE
 70
     0
  9
$SNAPUNIT
 10
1.0
 20
1.0
  9
$SNAPBASE
 10
0.0
 20
0.0
  9
$SNAPANG
 50
0.0
  9
$SNAPSTYLE
 70
     0
  9
$SNAPISOPAIR
 70
     0
  9
$GRIDMODE
 70
     0
  9
$GRIDUNIT
 10
0.0
 20
0.0
  9
$ORTHOMODE
 70
     0
  9
$REGENMODE
 70
     1
  9
$FILLMODE
 70
     1
  9
$QTEXTMODE
 70
     0
  9
$MIRRTEXT
 70
     1
  9
$DRAGMODE
 70
     2
  9
$LTSCALE
 40
1.0
  9
$OSMODE
 70
     0
  9
$ATTMODE
 70
     1
  9
$TEXTSIZE
 40
0.2
  9
$TRACEWID
 40
0.05
  9
$TEXTSTYLE
  7
STANDARD
  9
$CLAYER
  8
0
  9
$CELTYPE
  6
CONTINUOUS
  9
$CECOLOR
 62
   256
  9
$DIMSCALE
 40
1.0
  9
$DIMASZ
 40
0.18
  9
$DIMEXO
 40
0.0625
  9
$DIMDLI
 40
0.38
  9
$DIMRND
 40
0.0
  9
$DIMDLE
 40
0.0
  9
$DIMEXE
 40
0.18
  9
$DIMTP
 40
0.0
  9
$DIMTM
 40
0.0
  9
$DIMTXT
 40
0.18
  9
$DIMCEN
 40
0.09
  9
$DIMTSZ
 40
0.0
  9
$DIMTOL
 70
     0
  9
$DIMLIM
 70
     0
  9
$DIMTIH
 70
     1
  9
$DIMTOH
 70
     1
  9
$DIMSE1
 70
     0
  9
$DIMSE2
 70
     0
  9
$DIMTAD
 70
     0
  9
$DIMZIN
 70
     0
  9
$DIMBLK
  1

  9
$DIMASO
 70
     1
  9
$DIMSHO
 70
     1
  9
$DIMPOST
  1

  9
$DIMAPOST
  1

  9
$DIMALT
 70
     0
  9
$DIMALTD
 70
     2
  9
$DIMALTF
 40
25.4
  9
$DIMLFAC
 40
1.0
  9
$DIMTOFL
 70
     0
  9
$DIMTVP
 40
0.0
  9
$DIMTIX
 70
     0
  9
$DIMSOXD
 70
     0
  9
$DIMSAH
 70
     0
  9
$DIMBLK1
  1

  9
$DIMBLK2
  1

  9
$LUNITS
 70
     2
  9
$LUPREC
 70
     4
  9
$AXISMODE
 70
     0
  9
$AXISUNIT
 10
0.0
 20
0.0
  9
$SKETCHINC
 40
0.1
  9
$FILLETRAD
 40
0.0
  9
$AUNITS
 70
     0
  9
$AUPREC
 70
     3
  9
$MENU
  1
acad
  9
$ELEVATION
 40
0.0
  9
$THICKNESS
 40
0.0
  9
$LIMCHECK
 70
     0
  9
$BLIPMODE
 70
     1
  9
$CHAMFERA
 40
0.0
  9
$CHAMFERB
 40
0.0
  9
$SKPOLY
 70
     0
  9
$TDCREATE
 40
0.000000000
  9
$TDUPDATE
 40
0.000000000
  9
$TDINDWG
 40
0.0000000000
  9
$TDUSRTIMER
 40
0.0000000000
  9
$USRTIMER
 70
     1
  9
$ANGBASE
 50
0.0
  9
$ANGDIR
 70
     0
  9
$PDMODE
 70
     0
  9
$PDSIZE
 40
0.0
  9
$PLINEWID
 40
0.0
  9
$COORDS
 70
     0
  9
$SPLFRAME
 70
     0
  9
$SPLINETYPE
 70
     6
  9
$SPLINESEGS
 70
     8
  9
$ATTDIA
 70
     0
  9
$ATTREQ
 70
     1
  9
$HANDLING
 70
     0
  9
$HANDSEED
  5
3
  9
$SURFTAB1
 70
     6
  9
$SURFTAB2
 70
     6
  9
$SURFTYPE
 70
     6
  9
$SURFU
 70
     6
  9
$SURFV
 70
     6
  9
$FLATLAND
 70
     0
  9
$UCSNAME
  2

  9
$UCSORG
 10
0.0
 20
0.0
 30
0.0
  9
$UCSXDIR
 10
1.0
 20
0.0
 30
0.0
  9
$UCSYDIR
 10
0.0
 20
1.0
 30
0.0
  9
$USERI1
 70
     0
  9
$USERI2
 70
     0
  9
$USERI3
 70
     0
  9
$USERI4
 70
     0
  9
$USERI5
 70
     0
  9
$USERR1
 40
0.0
  9
$USERR2
 40
0.0
  9
$USERR3
 40
0.0
  9
$USERR4
 40
0.0
  9
$USERR5
 40
0.0
  9
$WORLDVIEW
 70
     1
  0
ENDSEC
  0
SECTION
  2
TABLES
  0
TABLE
  2
VPORT
 70
     1
  0
VPORT
  2
*ACTIVE
 70
     0
 10
0.0
 20
0.0
 11
1.0
 21
1.0
 12
6.591288
 22
4.579184
 13
0.0
 23
0.0
 14
1.0
 24
1.0
 15
0.0
 25
0.0
 16
0.0
 26
0.0
 36
1.0
 17
0.0
 27
0.0
 37
0.0
 40
9.158369
 41
0.688564
 42
50.0
 43
0.0
 44
0.0
 50
0.0
 51
0.0
 71
     0
 72
   100
 73
     1
 74
     1
 75
     0
 76
     0
 77
     0
 78
     0
  0
ENDTAB
  0
TABLE
  2
LTYPE
 70
     4
  0
LTYPE
  2
CONTINUOUS
 70
     0
  3
Solid line
 72
    65
 73
     0
 40
0.0
  0
LTYPE
  2
DASH_CENTER
 70
     0
  3

 72
    65
 73
     0
 40
0.0
  0
LTYPE
  2
DOT_CENTER
 70
     0
  3

 72
    65
 73
     0
 40
0.0
  0
LTYPE
  2
PHANTOM
 70
     0
  3

 72
    65
 73
     2
 40
380.999994
 49
304.799995
 49
-76.199999
  0
ENDTAB
  0
TABLE
  2
LAYER
 70
     2
  0
LAYER
  2
0
 70
     0
 62
     1
  6
CONTINUOUS
  0
LAYER
  2
100
 70
     0
 62
     1
  6
CONTINUOUS
  0
ENDTAB
  0
TABLE
  2
STYLE
 70
     1
  0
STYLE
  2
STANDARD
 70
     0
 40
0.0
 41
1.0
 50
0.0
 71
     0
 42
0.2
  3

  4

  0
ENDTAB
  0
TABLE
  2
VIEW
 70
     0
  0
ENDTAB
  0
TABLE
  2
UCS
 70
     0
  0
ENDTAB
  0
ENDSEC
  0
SECTION
  2
BLOCKS
  0
BLOCK
  8
0
  2
_G_T_1
 70
    64
 10
0.0
 20
0.0
  0
TEXT
  8
100
  6
CONTINUOUS
 62
     1
 10
125.0
 20
-176.449997
 30
0.0
 40
5.0
  1
Tuerdruecker
 41
1.000004
  0
TEXT
  8
100
  6
CONTINUOUS
 62
     1
 10
125.0
 20
-183.449997
 30
0.0
 40
5.0
  1
10350002
 41
1.000004
  0
ENDBLK
  8
0
  0
ENDSEC
  0
SECTION
  2
ENTITIES
  0
ARC
  8
100
  6
CONTINUOUS
 62
     7
 10
283.0
 20
-11.0
 30
0.0
 40
5.0
 50
90.0
 51
165.522488
  0
ARC
  8
100
  6
CONTINUOUS
 62
     7
 10
123.0
 20
-4.0
 30
0.0
 40
2.0
 50
270.0
 51
0.0
  0
ARC
  8
100
  6
CONTINUOUS
 62
     7
 10
123.0
 20
4.0
 30
0.0
 40
2.0
 50
0.0
 51
90.0
  0
ARC
  8
100
  6
CONTINUOUS
 62
     7
 10
283.0
 20
11.0
 30
0.0
 40
5.0
 50
194.477512
 51
270.0
  0
ARC
  8
100
  6
CONTINUOUS
 62
     7
 10
-10.0
 20
-305.0
 30
0.0
 40
2.0
 50
180.0
 51
270.0
  0
ARC
  8
100
  6
CONTINUOUS
 62
     7
 10
123.0
 20
-288.0
 30
0.0
 40
2.0
 50
0.0
 51
90.0
  0
ARC
  8
100
  6
CONTINUOUS
 62
     7
 10
123.0
 20
-305.0
 30
0.0
 40
2.0
 50
270.0
 51
0.0
  0
ARC
  8
100
  6
CONTINUOUS
 62
     7
 10
16.0
 20
-282.0
 30
0.0
 40
4.0
 50
180.0
 51
270.0
  0
CIRCLE
  8
100
  6
PHANTOM
 62
     1
 10
0.0
 20
0.0
 30
0.0
 40
8.925
  0
ARC
  8
100
  6
CONTINUOUS
 62
     7
 10
296.5
 20
0.0
 30
0.0
 40
10.5
 50
336.421822
 51
23.578178
  0
ARC
  8
100
  6
CONTINUOUS
 62
     7
 10
303.373863
 20
3.0
 30
0.0
 40
3.0
 50
23.578178
 51
90.0
  0
ARC
  8
100
  6
CONTINUOUS
 62
     7
 10
303.373863
 20
-3.0
 30
0.0
 40
3.0
 50
270.0
 51
336.421822
  0
ARC
  8
100
  6
CONTINUOUS
 62
     7
 10
275.254033
 20
-9.0
 30
0.0
 40
3.0
 50
270.0
 51
345.522488
  0
ARC
  8
100
  6
CONTINUOUS
 62
     7
 10
275.254033
 20
9.0
 30
0.0
 40
3.0
 50
14.477512
 51
90.0
  0
ARC
  8
100
  6
PHANTOM
 62
     1
 10
296.5
 20
0.0
 30
0.0
 40
10.5
 50
156.421822
 51
203.578178
  0
ARC
  8
100
  6
PHANTOM
 62
     1
 10
289.626136
 20
-3.0
 30
0.0
 40
3.0
 50
203.578178
 51
270.0
  0
ARC
  8
100
  6
PHANTOM
 62
     1
 10
289.626136
 20
3.0
 30
0.0
 40
3.0
 50
90.0
 51
156.421822
  0
ARC
  8
100
  6
PHANTOM
 62
     1
 10
0.0
 20
0.0
 30
0.0
 40
12.0
 50
330.0
 51
30.0
  0
ARC
  8
100
  6
CONTINUOUS
 62
     1
 10
-4.851647
 20
-282.577823
 30
0.0
 40
5.0
 50
90.0
 51
180.0
  0
ARC
  8
100
  6
CONTINUOUS
 62
     1
 10
4.851646
 20
-282.577823
 30
0.0
 40
5.0
 50
0.0
 51
90.0
  0
ARC
  8
100
  6
CONTINUOUS
 62
     7
 10
0.0
 20
0.0
 30
0.0
 40
12.0
 50
208.571878
 51
330.0
  0
ARC
  8
100
  6
CONTINUOUS
 62
     7
 10
-10.099505
 20
5.5
 30
0.0
 40
0.5
 50
90.0
 51
151.428122
  0
ARC
  8
100
  6
CONTINUOUS
 62
     7
 10
0.0
 20
0.0
 30
0.0
 40
12.0
 50
30.0
 51
151.428122
  0
ARC
  8
100
  6
CONTINUOUS
 62
     7
 10
-10.099505
 20
-5.5
 30
0.0
 40
0.5
 50
208.571878
 51
270.0
  0
ARC
  8
100
  6
CONTINUOUS
 62
     7
 10
0.0
 20
0.0
 30
0.0
 40
12.0
 50
151.428122
 51
208.571878
  0
ARC
  8
100
  6
CONTINUOUS
 62
     1
 10
14.851646
 20
-282.883156
 30
0.0
 40
5.0
 50
180.0
 51
270.0
  0
LINE
  8
100
  6
PHANTOM
 62
     1
 10
4.05
 20
4.05
 30
0.0
 11
-4.05
 21
4.05
 31
0.0
  0
LINE
  8
100
  6
CONTINUOUS
 62
     7
 10
238.0
 20
-8.45
 30
0.0
 11
238.0
 21
8.45
 31
0.0
  0
LINE
  8
100
  6
CONTINUOUS
 62
     7
 10
238.0
 20
8.45
 30
0.0
 11
238.5
 21
8.95
 31
0.0
  0
LINE
  8
100
  6
CONTINUOUS
 62
     7
 10
238.5
 20
-8.95
 30
0.0
 11
238.0
 21
-8.45
 31
0.0
  0
LINE
  8
100
  6
CONTINUOUS
 62
     7
 10
239.5
 20
8.0
 30
0.0
 11
240.9
 21
8.0
 31
0.0
  0
LINE
  8
100
  6
CONTINUOUS
 62
     7
 10
239.5
 20
-8.0
 30
0.0
 11
240.9
 21
-8.0
 31
0.0
  0
LINE
  8
100
  6
CONTINUOUS
 62
     7
 10
240.9
 20
8.95
 30
0.0
 11
250.0
 21
8.95
 31
0.0
  0
LINE
  8
100
  6
CONTINUOUS
 62
     7
 10
240.9
 20
-8.95
 30
0.0
 11
240.9
 21
8.95
 31
0.0
  0
LINE
  8
100
  6
CONTINUOUS
 62
     7
 10
239.5
 20
-8.95
 30
0.0
 11
238.5
 21
-8.95
 31
0.0
  0
LINE
  8
100
  6
CONTINUOUS
 62
     7
 10
239.5
 20
-8.95
 30
0.0
 11
239.5
 21
8.95
 31
0.0
  0
LINE
  8
100
  6
CONTINUOUS
 62
     7
 10
250.0
 20
-12.0
 30
0.0
 11
250.0
 21
12.0
 31
0.0
  0
LINE
  8
100
  6
CONTINUOUS
 62
     7
 10
250.0
 20
-8.95
 30
0.0
 11
240.9
 21
-8.95
 31
0.0
  0
LINE
  8
100
  6
CONTINUOUS
 62
     7
 10
238.5
 20
8.95
 30
0.0
 11
239.5
 21
8.95
 31
0.0
  0
LINE
  8
100
  6
CONTINUOUS
 62
     7
 10
-8.95
 20
-238.5
 30
0.0
 11
8.95
 21
-238.5
 31
0.0
  0
LINE
  8
100
  6
CONTINUOUS
 62
     7
 10
8.45
 20
-238.0
 30
0.0
 11
8.95
 21
-238.5
 31
0.0
  0
LINE
  8
100
  6
CONTINUOUS
 62
     7
 10
-8.95
 20
-238.5
 30
0.0
 11
-8.45
 21
-238.0
 31
0.0
  0
LINE
  8
100
  6
CONTINUOUS
 62
     7
 10
-8.95
 20
-240.9
 30
0.0
 11
8.95
 21
-240.9
 31
0.0
  0
LINE
  8
100
  6
CONTINUOUS
 62
     7
 10
-8.95
 20
-239.5
 30
0.0
 11
8.95
 21
-239.5
 31
0.0
  0
LINE
  8
100
  6
CONTINUOUS
 62
     7
 10
8.0
 20
-239.5
 30
0.0
 11
8.0
 21
-240.9
 31
0.0
  0
LINE
  8
100
  6
CONTINUOUS
 62
     7
 10
-8.0
 20
-239.5
 30
0.0
 11
-8.0
 21
-240.9
 31
0.0
  0
LINE
  8
100
  6
CONTINUOUS
 62
     7
 10
8.95
 20
-240.9
 30
0.0
 11
8.95
 21
-250.0
 31
0.0
  0
LINE
  8
100
  6
CONTINUOUS
 62
     7
 10
-8.95
 20
-239.5
 30
0.0
 11
-8.95
 21
-238.5
 31
0.0
  0
LINE
  8
100
  6
PHANTOM
 62
     1
 10
-4.05
 20
-4.05
 30
0.0
 11
4.05
 21
-4.05
 31
0.0
  0
LINE
  8
100
  6
PHANTOM
 62
     1
 10
-4.05
 20
4.05
 30
0.0
 11
-4.05
 21
-4.05
 31
0.0
  0
LINE
  8
100
  6
PHANTOM
 62
     1
 10
4.05
 20
-4.05
 30
0.0
 11
4.05
 21
4.05
 31
0.0
  0
LINE
  8
100
  6
CONTINUOUS
 62
     7
 10
12.0
 20
-250.0
 30
0.0
 11
-12.0
 21
-250.0
 31
0.0
  0
LINE
  8
100
  6
CONTINUOUS
 62
     7
 10
-12.0
 20
-250.0
 30
0.0
 11
-12.0
 21
-305.0
 31
0.0
  0
LINE
  8
100
  6
CONTINUOUS
 62
     7
 10
12.0
 20
-250.0
 30
0.0
 11
12.0
 21
-282.0
 31
0.0
  0
LINE
  8
100
  6
CONTINUOUS
 62
     7
 10
-8.95
 20
-250.0
 30
0.0
 11
-8.95
 21
-240.9
 31
0.0
  0
LINE
  8
100
  6
CONTINUOUS
 62
     7
 10
-8.45
 20
-238.0
 30
0.0
 11
8.45
 21
-238.0
 31
0.0
  0
LINE
  8
100
  6
CONTINUOUS
 62
     7
 10
8.95
 20
-238.5
 30
0.0
 11
8.95
 21
-239.5
 31
0.0
  0
LINE
  8
100
  6
PHANTOM
 62
     1
 10
238.0
 20
4.05
 30
0.0
 11
262.0
 21
4.05
 31
0.0
  0
LINE
  8
100
  6
PHANTOM
 62
     1
 10
238.0
 20
-4.05
 30
0.0
 11
262.0
 21
-4.05
 31
0.0
  0
LINE
  8
100
  6
PHANTOM
 62
     1
 10
4.05
 20
-238.0
 30
0.0
 11
4.05
 21
-262.0
 31
0.0
  0
LINE
  8
100
  6
PHANTOM
 62
     1
 10
-4.05
 20
-238.0
 30
0.0
 11
-4.05
 21
-262.0
 31
0.0
  0
LINE
  8
100
  6
CONTINUOUS
 62
     7
 10
238.5
 20
-8.95
 30
0.0
 11
238.5
 21
8.95
 31
0.0
  0
LINE
  8
100
  6
CONTINUOUS
 62
     7
 10
303.373863
 20
6.0
 30
0.0
 11
283.0
 21
6.0
 31
0.0
  0
LINE
  8
100
  6
CONTINUOUS
 62
     7
 10
303.373863
 20
-6.0
 30
0.0
 11
283.0
 21
-6.0
 31
0.0
  0
LINE
  8
100
  6
CONTINUOUS
 62
     7
 10
275.254033
 20
-12.0
 30
0.0
 11
250.0
 21
-12.0
 31
0.0
  0
LINE
  8
100
  6
DOT_CENTER
 62
     1
 10
296.5
 20
-8.0
 30
0.0
 11
296.5
 21
8.0
 31
0.0
  0
LINE
  8
100
  6
CONTINUOUS
 62
     1
 10
-9.851647
 20
-282.577823
 30
0.0
 11
-9.851647
 21
-305.116844
 31
0.0
  0
LINE
  8
100
  6
CONTINUOUS
 62
     1
 10
-4.851647
 20
-277.577823
 30
0.0
 11
4.851646
 21
-277.577823
 31
0.0
  0
LINE
  8
100
  6
CONTINUOUS
 62
     1
 10
9.851646
 20
-282.577823
 30
0.0
 11
9.851646
 21
-282.883156
 31
0.0
  0
LINE
  8
100
  6
CONTINUOUS
 62
     7
 10
125.0
 20
4.0
 30
0.0
 11
125.0
 21
-4.0
 31
0.0
  0
LINE
  8
100
  6
DOT_CENTER
 62
     1
 10
309.432882
 20
0.0
 30
0.0
 11
235.367088
 21
0.0
 31
0.0
  0
LINE
  8
100
  6
DOT_CENTER
 62
     1
 10
0.0
 20
-14.684523
 30
0.0
 11
0.0
 21
14.593309
 31
0.0
  0
LINE
  8
100
  6
DOT_CENTER
 62
     1
 10
-14.369846
 20
0.0
 30
0.0
 11
127.541528
 21
0.0
 31
0.0
  0
LINE
  8
100
  6
DOT_CENTER
 62
     1
 10
-1.968942
 20
-296.5
 30
0.0
 11
128.309528
 21
-296.5
 31
0.0
  0
LINE
  8
100
  6
CONTINUOUS
 62
     7
 10
125.0
 20
-305.0
 30
0.0
 11
125.0
 21
-288.0
 31
0.0
  0
LINE
  8
100
  6
CONTINUOUS
 62
     7
 10
-10.0
 20
-307.0
 30
0.0
 11
123.0
 21
-307.0
 31
0.0
  0
LINE
  8
100
  6
CONTINUOUS
 62
     7
 10
16.0
 20
-286.0
 30
0.0
 11
123.0
 21
-286.0
 31
0.0
  0
LINE
  8
100
  6
CONTINUOUS
 62
     7
 10
250.0
 20
12.0
 30
0.0
 11
275.254033
 21
12.0
 31
0.0
  0
LINE
  8
100
  6
DASH_CENTER
 62
     1
 10
0.0
 20
-294.34981
 30
0.0
 11
0.0
 21
-235.367088
 31
0.0
  0
LINE
  8
100
  6
CONTINUOUS
 62
     1
 10
124.996584
 20
-305.116844
 30
0.0
 11
-9.851647
 21
-305.116844
 31
0.0
  0
LINE
  8
100
  6
CONTINUOUS
 62
     1
 10
14.851646
 20
-287.883156
 30
0.0
 11
124.996584
 21
-287.883156
 31
0.0
  0
LINE
  8
100
  6
CONTINUOUS
 62
     7
 10
123.0
 20
-6.0
 30
0.0
 11
-10.099505
 21
-6.0
 31
0.0
  0
LINE
  8
100
  6
CONTINUOUS
 62
     7
 10
123.0
 20
6.0
 30
0.0
 11
-10.099505
 21
6.0
 31
0.0
  0
INSERT
  8
0
  2
_G_T_1
 10
0.0
 20
0.0
 30
0.0
  0
ENDSEC
  0
EOF
