  0
SECTION
  2
HEADER
  9
$ACADVER
  1
AC1009
  9
$INSBASE
 10
0
 20
0
  9
$EXTMIN
 10
-13.8314556429832
 20
-312
  9
$EXTMAX
 10
314.401576800183
 20
13.546205637215
  9
$LIMMIN
 10
-13.8314556429832
 20
-312
  9
$LIMMAX
 10
314.401576800183
 20
13.546205637215
  9
$VIEWCTR
 10
10
 20
10
  9
$VIEWSIZE
 40
10
  9
$SNAPMODE
 70
0
  9
$SNAPUNIT
 10
1
 20
1
  9
$SNAPBASE
 10
0
 20
0
  9
$SNAPANG
 50
0
  9
$SNAPSTYLE
 70
0
  9
$SNAPISOPAIR
 70
0
  9
$GRIDMODE
 70
0
  9
$GRIDUNIT
 10
0
 20
0
  9
$ORTHOMODE
 70
0
  9
$REGENMODE
 70
1
  9
$FILLMODE
 70
1
  9
$QTEXTMODE
 70
0
  9
$DRAGMODE
 70
2
  9
$LTSCALE
 40
1
  9
$OSMODE
 70
0
  9
$ATTMODE
 70
1
  9
$TEXTSIZE
 40
3.5
  9
$TRACEWID
 40
0.5
  9
$TEXTSTYLE
  7
STANDARD
  9
$CLAYER
  8
0
  9
$CELTYPE
  6
BYLAYER
  9
$CECOLOR
 62
256
  9
$DIMSCALE
 40
1
  9
$DIMASZ
 40
0.18
  9
$DIMEXO
 40
0.0625
  9
$DIMDLI
 40
0.38
  9
$DIMRND
 40
0
  9
$DIMDLE
 40
0
  9
$DIMEXE
 40
0.18
  9
$DIMTP
 40
0
  9
$DIMTM
 40
0
  9
$DIMTXT
 40
0.18
  9
$DIMCEN
 40
0.09
  9
$DIMTSZ
 40
0
  9
$DIMTOL
 70
0
  9
$DIMLIM
 70
0
  9
$DIMTIH
 70
1
  9
$DIMTOH
 70
1
  9
$DIMSE1
 70
0
  9
$DIMSE2
 70
0
  9
$DIMTAD
 70
0
  9
$DIMZIN
 70
0
  9
$DIMBLK
  1

  9
$DIMASO
 70
1
  9
$DIMSHO
 70
1
  9
$DIMPOST
  1

  9
$DIMAPOST
  1

  9
$DIMALT
 70
0
  9
$DIMALTD
 70
2
  9
$DIMALTF
 40
25.4
  9
$DIMLFAC
 40
1
  9
$DIMTOFL
 70
0
  9
$DIMTVP
 40
0
  9
$DIMTIX
 70
0
  9
$DIMSOXD
 70
0
  9
$DIMSAH
 70
0
  9
$DIMBLK1
  1

  9
$DIMBLK2
  1

  9
$DIMSTYLE
  2
*UNNAMED
  9
$DIMCLRD
 70
0
  9
$DIMCLRE
 70
0
  9
$DIMCLRT
 70
0
  9
$DIMTFAC
 40
1
  9
$DIMGAP
 40
0.09
  9
$LUNITS
 70
2
  9
$LUPREC
 70
4
  9
$AXISMODE
 70
0
  9
$AXISUNIT
 10
0
 20
0
  9
$SKETCHINC
 40
0.1
  9
$FILLETRAD
 40
2
  9
$AUNITS
 70
0
  9
$AUPREC
 70
0
  9
$MENU
  1
ACAD
  9
$ELEVATION
 40
0
  9
$THICKNESS
 40
0
  9
$VIEWDIR
 10
0
 20
0
 30
1
  9
$LIMCHECK
 70
0
  9
$BLIPMODE
 70
1
  9
$CHAMFERA
 40
0
  9
$CHAMFERB
 40
0
  9
$FASTZOOM
 70
1
  9
$SKPOLY
 70
0
  9
$ANGBASE
 50
0
  9
$ANGDIR
 70
0
  9
$PDMODE
 70
0
  9
$PDSIZE
 40
0
  9
$PLINEWID
 40
0
  9
$COORDS
 70
2
  0
ENDSEC
  0
SECTION
  2
TABLES
  0
TABLE
  2
DIMSTYLE
 70
0
  0
ENDTAB
  0
TABLE
  2
LTYPE
 70
9
  0
LTYPE
  2
CONTINUOUS
 70
64
  3
Solid line
 72
65
 73
0
 40
0
  0
LTYPE
  2
BORDER
 70
64
  3
__ __ . __ __ .
 72
65
 73
6
 40
15.11599491514581
 49
4.318855690041661
 49
-2.159427845020831
 49
4.318855690041661
 49
-2.159427845020831
 49
0
 49
-2.159427845020831
  0
LTYPE
  2
CENTER
 70
64
  3
____ _ ____ _
 72
65
 73
4
 40
17.27542276016665
 49
10.79713922510415
 49
-2.159427845020831
 49
2.159427845020831
 49
-2.159427845020831
  0
LTYPE
  2
DASHDOT
 70
64
  3
__ . __ . __ .
 72
65
 73
4
 40
8.637711380083323
 49
4.318855690041661
 49
-2.159427845020831
 49
0
 49
-2.159427845020831
  0
LTYPE
  2
DASHED
 70
64
  3
__ __ __ __ __
 72
65
 73
2
 40
6.478283535062491
 49
4.318855690041661
 49
-2.159427845020831
  0
LTYPE
  2
DIVIDE
 70
64
  3
__ . . __ . . 
 72
65
 73
6
 40
10.79713922510415
 49
4.318855690041661
 49
-2.159427845020831
 49
0
 49
-2.159427845020831
 49
0
 49
-2.159427845020831
  0
LTYPE
  2
DOT
 70
64
  3
..............
 72
65
 73
4
 40
4.318855690041661
 49
0
 49
-2.159427845020831
 49
0
 49
-2.159427845020831
  0
LTYPE
  2
HIDDEN
 70
64
  3
_ _ _ _ _ _ _
 72
65
 73
2
 40
3.239141767531246
 49
2.159427845020831
 49
-1.079713922510415
  0
LTYPE
  2
PHANTOM
 70
64
  3
_____ _ _ _____ _ _ 
 72
65
 73
6
 40
21.59427845020831
 49
10.79713922510415
 49
-2.159427845020831
 49
2.159427845020831
 49
-2.159427845020831
 49
2.159427845020831
 49
-2.159427845020831
  0
ENDTAB
  0
TABLE
  2
LAYER
 70
3
  0
LAYER
  2
100
 70
0
 62
7
  6
CONTINUOUS
  0
LAYER
  2
0
 70
0
 62
7
  6
CONTINUOUS
  0
ENDTAB
  0
TABLE
  2
STYLE
 70
4
  0
STYLE
  2
STANDARD
 70
0
 40
0
 41
1
 50
0
 71
0
 42
3.5
  3
txt
  4

  0
STYLE
  2
SIMPLEX
 70
0
 40
0
 41
1
 50
0
 71
0
 42
3.5
  3
simplex
  4

  0
STYLE
  2
COMPLEX
 70
0
 40
0
 41
1
 50
0
 71
0
 42
3.5
  3
complex
  4

  0
STYLE
  2
ITALIC
 70
0
 40
0
 41
1
 50
0
 71
0
 42
3.5
  3
italic
  4

  0
ENDTAB
  0
TABLE
  2
VIEW
 70
0
  0
ENDTAB
  0
ENDSEC
  0
SECTION
  2
BLOCKS
  0
ENDSEC
  0
SECTION
  2
ENTITIES
  0
LINE
  8
100
 62
1
  6
DASHDOT
 10
123.25
 20
12
 30
0
 11
123.25
 21
-12
 31
0
  0
LINE
  8
100
 62
1
  6
DASHDOT
 10
-13.8314556429832
 20
0
 30
0
 11
135.1685443570168
 21
0
 31
0
  0
LINE
  8
100
 62
1
  6
DASHDOT
 10
0
 20
13.546205637215
 30
0
 11
0
 21
-13.453794362785
 31
0
  0
LINE
  8
100
 62
7
 10
0.4231631855727773
 20
-10.84213342889197
 30
0
 11
22
 21
-10
 31
0
  0
LINE
  8
100
 62
7
 10
22
 20
10
 30
0
 11
0.4231631855727773
 21
10.84213342889197
 31
0
  0
LINE
  8
100
 62
1
  6
DASHDOT
 10
123.25
 20
-280
 30
0
 11
123.25
 21
-253
 31
0
  0
LINE
  8
100
 62
1
  6
DASHDOT
 10
22
 20
-302
 30
0
 11
101.25
 21
-302
 31
0
  0
LINE
  8
100
 62
7
 10
21.17309840817005
 20
-312
 30
0
 11
101.25
 21
-312
 31
0
  0
LINE
  8
100
 62
7
 10
22.85919569585713
 20
-292
 30
0
 11
101.25
 21
-292
 31
0
  0
LINE
  8
100
 62
1
  6
DASHDOT
 10
0
 20
-234.9961575862799
 30
0
 11
0
 21
-292
 31
0
  0
LINE
  8
100
 62
1
  6
DASHDOT
 10
302
 20
12
 30
0
 11
302
 21
-12
 31
0
  0
LINE
  8
100
 62
1
  6
DASHDOT
 10
236.401576800183
 20
0
 30
0
 11
314.401576800183
 21
0
 31
0
  0
LINE
  8
100
 62
1
  6
DASHED
 10
-3.999999999999997
 20
-288
 30
0
 11
-4
 21
-238
 31
0
  0
LINE
  8
100
 62
1
  6
DASHED
 10
4.000000000000003
 20
-288
 30
0
 11
-3.999999999999997
 21
-288
 31
0
  0
LINE
  8
100
 62
1
  6
DASHED
 10
4
 20
-238
 30
0
 11
4.000000000000003
 21
-288
 31
0
  0
LINE
  8
100
 62
7
 10
113.25
 20
-258.5
 30
0
 11
113.25
 21
-280
 31
0
  0
LINE
  8
100
 62
7
 10
131.75
 20
-257
 30
0
 11
114.75
 21
-257
 31
0
  0
LINE
  8
100
 62
7
 10
133.25
 20
-280
 30
0
 11
133.25
 21
-258.5
 31
0
  0
LINE
  8
100
 62
7
 10
-10.80343219624434
 20
-281.2253532164033
 30
0
 11
-12
 21
-250
 31
0
  0
LINE
  8
100
 62
7
 10
12
 20
-250
 30
0
 11
10.86799671920173
 21
-279.5404925438488
 31
0
  0
LINE
  8
100
 62
7
 10
-8.925000000000001
 20
-238
 30
0
 11
-8.924999999999999
 21
-250
 31
0
  0
LINE
  8
100
 62
7
 10
8.925000000000001
 20
-238
 30
0
 11
-8.925000000000001
 21
-238
 31
0
  0
LINE
  8
100
 62
7
 10
8.925000000000002
 20
-250
 30
0
 11
8.925000000000001
 21
-238
 31
0
  0
LINE
  8
100
 62
7
 10
12
 20
-250
 30
0
 11
-12
 21
-250
 31
0
  0
LINE
  8
100
 62
1
  6
DASHED
 10
-4
 20
4
 30
0
 11
-4
 21
-4
 31
0
  0
LINE
  8
100
 62
1
  6
DASHED
 10
4
 20
4
 30
0
 11
-4
 21
4
 31
0
  0
LINE
  8
100
 62
1
  6
DASHED
 10
4
 20
-4
 30
0
 11
4
 21
4
 31
0
  0
LINE
  8
100
 62
1
  6
DASHED
 10
-4
 20
-4
 30
0
 11
4
 21
-4
 31
0
  0
LINE
  8
100
 62
1
  6
DASHED
 10
288
 20
-4
 30
0
 11
238
 21
-4
 31
0
  0
LINE
  8
100
 62
1
  6
DASHED
 10
288
 20
4
 30
0
 11
288
 21
-4
 31
0
  0
LINE
  8
100
 62
1
  6
DASHED
 10
238
 20
4
 30
0
 11
288
 21
4
 31
0
  0
LINE
  8
100
 62
1
  6
DASHED
 10
258.5
 20
-10
 30
0
 11
302
 21
-10
 31
0
  0
LINE
  8
100
 62
1
  6
DASHED
 10
257
 20
8.5
 30
0
 11
257
 21
-8.5
 31
0
  0
LINE
  8
100
 62
1
  6
DASHED
 10
302
 20
10
 30
0
 11
258.5
 21
10
 31
0
  0
LINE
  8
100
 62
7
 10
302.382922880126
 20
-9.992665813879498
 30
0
 11
250
 21
-12
 31
0
  0
LINE
  8
100
 62
7
 10
250
 20
12
 30
0
 11
302.382922880126
 21
9.992665813879498
 31
0
  0
LINE
  8
100
 62
7
 10
123.25
 20
-10
 30
0
 11
22
 21
-10
 31
0
  0
LINE
  8
100
 62
7
 10
123.25
 20
10
 30
0
 11
22
 21
10
 31
0
  0
LINE
  8
100
 62
7
 10
238
 20
-8.925000000000001
 30
0
 11
250
 21
-8.925000000000001
 31
0
  0
LINE
  8
100
 62
7
 10
238
 20
8.925000000000001
 30
0
 11
238
 21
-8.925000000000001
 31
0
  0
LINE
  8
100
 62
7
 10
250
 20
8.925000000000001
 30
0
 11
238
 21
8.925000000000001
 31
0
  0
LINE
  8
100
 62
7
 10
250
 20
12
 30
0
 11
250
 21
-12
 31
0
  0
ARC
  8
100
 62
7
 10
0
 20
0
 30
0
 40
12
 50
62.48052744192665
 51
297.5194725580733
  0
ARC
  8
100
 62
1
  6
DASHED
 10
0
 20
0
 30
0
 40
12
 50
297.5194725580733
 51
62.48052744192665
  0
ARC
  8
100
 62
1
  6
DASHED
 10
302
 20
0
 30
0
 40
10
 50
87.80547698139996
 51
272.1945230186
  0
ARC
  8
100
 62
7
 10
302
 20
0
 30
0
 40
10
 50
272.1945230186
 51
87.80547698139996
  0
ARC
  8
100
 62
7
 10
123.25
 20
0
 30
0
 40
10
 50
270
 51
90
  0
ARC
  8
100
 62
1
  6
DASHED
 10
123.25
 20
0
 30
0
 40
10
 50
90
 51
270
  0
CIRCLE
  8
100
 62
1
  6
DASHED
 10
0
 20
0
 30
0
 40
8.925000000000001
  0
ARC
  8
100
 62
1
  6
DASHDOT
 10
101.25
 20
-280
 30
0
 40
22
 50
270
 51
0
  0
ARC
  8
100
 62
1
  6
DASHDOT
 10
22
 20
-280
 30
0
 40
22
 50
180
 51
270
  0
ARC
  8
100
 62
7
 10
22.85919569585713
 20
-280
 30
0
 40
12
 50
177.8054769814
 51
270
  0
ARC
  8
100
 62
7
 10
21.17309840817005
 20
-280
 30
0
 40
32
 50
182.1945230186002
 51
270
  0
ARC
  8
100
 62
7
 10
101.25
 20
-280
 30
0
 40
32
 50
270
 51
0
  0
ARC
  8
100
 62
7
 10
101.25
 20
-280
 30
0
 40
12
 50
270
 51
0
  0
ARC
  8
100
 62
7
 10
114.75
 20
-258.5
 30
0
 40
1.5
 50
90
 51
180
  0
ARC
  8
100
 62
7
 10
131.75
 20
-258.5
 30
0
 40
1.5
 50
0
 51
90
  0
ARC
  8
100
 62
1
  6
DASHED
 10
258.5
 20
-8.5
 30
0
 40
1.5
 50
180
 51
270
  0
ARC
  8
100
 62
1
  6
DASHED
 10
258.5
 20
8.5
 30
0
 40
1.5
 50
90
 51
180
  0
TEXT
  8
100
 62
7
 10
125
 20
-175
 30
0
 40
5
  1
Tuerdruecker
 41
0.9
  7
SIMPLEX
  0
TEXT
  8
100
 62
7
 10
125
 20
-185
 30
0
 40
5
  1
10700001
 41
0.9
  7
SIMPLEX
  0
ENDSEC
  0
EOF
